Fonzie - A Tua Imagem tab

Intro:

|-----------------------------||-----------------------------||-----------------------------||-----------------------------||-8-8-8-6-8-8-8-6-8-8-8-8/9\8-||-----------------------------|
| | | | | |
|-----------------------||-----------------------||-----------------------||-----------------------!|-8-6-4---4-6-8-6-8/9\8-||-------6---------------|
|-------------------------------||-------------------------------||-------------------------------||-------------------------------||-11-9-8---8-9-8---8-9----------||--------9-------9-----8-11-9-8-|
Riff 1:
|----------------------||----------------------||----------------------||----8----8----8-------| x2|----8----8----8-8h9p8-||-66-6-66-6-66-6-------|
|-----------------------||-----------------------||-----------------------||-----------------------||----8----8----8-8h9p8--||-99---99---99----------|
|-------||-------||-------||-6-3-6-||-6-3-6-||-4-1-4-|
REPETIR RIFF 1 O sentimento e ingenuo...
|---------| |---||---------| |---||---------| |---||-4--6--8-| x3 |-4-||-4--6--8-| |-4-||-2--4--6-| |-2-|
Refrâo:
|------------||------------||-------6----||-8--4--6--6-| x2|-8--4--4--6-||-6--2-----4-|
Riff 2:
|-----------------------||-----------------------||-----------------------||-----------------------!|-8-6-4---4-6-8-6-8/9\8-||-------6---------------|
|-------------------------------||-------------------------------||-------------------------------||-------------------------------||-11-9-8---8-9-8---8-9----------||--------9-------9-----8-11-9-8-|
Riff 1:
|----------------------||----------------------||----------------------||----8----8----8-------| x2|----8----8----8-8h9p8-||-66-6-66-6-66-6-------|
|-----------------------||-----------------------||-----------------------||-----------------------||----8----8----8-8h9p8--||-99---99---99----------|
|-------||-------||-------||-6-3-6-||-6-3-6-||-4-1-4-|
REPETIR RIFF 1 O sentimento e ingenuo...
|---------| |---||---------| |---||---------| |---||-4--6--8-| x3 |-4-||-4--6--8-| |-4-||-2--4--6-| |-2-|
Refrâo:
|------------||------------||-------6----||-8--4--6--6-| x2|-8--4--4--6-||-6--2-----4-|
Bridge:
|-----------------------||-----------------------||-----------------------||-4--3--8--3--6--4--3--8||-4--3--8--3--6--4--3--8||-2--1--6--1--4--2--1--6|
Solo:
|--------------||--------------||--------------||--------------||-11-9-8-8-8-8-||--------------|
|--------------||--------------||--------------||--------------||-11-9-8-------||--------9-9-9-|
|---------------------||---------------------||---------------------||---------------------||-11-9-8-8-8-8--------||--------------8-9-11-|
REPEAT Refrão:
|------------||------------||-------6----||-8--4--6--6-| x3|-8--4--4--6-||-6--2-----4-|
Ending:
|----------------------||----------------------||----------------------||----------------------| x2|----------------------||------6664-6664-6664--|
Tabbed by: sasukegonzalez e-mail: diogocoelho999@hotmail.com
Tap to rate this tab
 
# A B C D E F G H I J K L M N O P Q R S T U V W X Y Z