Frusciante John - For Air tab

 Tuning : E A D G B E
4/4

|-------------------------------7---------------------||------------------------5--------7-------------------||---------6b7-6pb7r6-4--------------------------------||-----4----------------5---4-4------------------------||-----------------------------------5-----------------||-2-2---2---------------------------------------------|
|-----5------9----------7-------------------------7---||-7s8---8s10---10s7-----7-------------------------7---||-----------------------------------------------------||-----------------------------7-----7-----7-----------||-------------------------------5-5---5-5---5---------||-------------------7-7---7-------------------7-7---7-|
|-------------------------------------------7---------||------------------------------------5--------7-------||---------------------6b7-6pb7r6-4--------------------||-7p5---7p5-------4----------------5---4-4------------||-----5-----5-----------------------------------5-----||-------------2-2---2---------------------------------|
|------9------------7--------------------7------------||-8s10---10s8-7-----7--------------------7------------||-----------------------------------------------------||------------------------7p5---7p5--------------------||----------------------------5-----5------------------||---------------7-7---7--------------7-7---7----------|
|-------------------------------------------7---------||------------------------------------5--------7-------||---------------------6b7-6pb7r6-4--------------------||-7p5---7p5-------2----------------5---4-4------------||-----5-----5-----------------------------------5-----||-------------2-2---2---------------------------------|
|-----5------9-----------7----------------------7-----||-7s8---8s10---10s7------7----------------------7-----||-----------------------------------------------------||------------------------------7p5---7p5--------------||----------------------------------5-----5------------||--------------------7-7---7---------------7-7----7---|
|--------------------------------------------7--------||-------------------------------------5--------7------||----------------------6b7-6pb7r6-4-------------------||-7p5---7p5--------2----------------5----4-4----------||-----5-----5------------------------------------5----||-------------2-2----2--------------------------------|
|------9-------------7----||-8s10---10s8-7------7----||-------------------------||-------------------------||-------------------------||---------------7-7-------|
**************************************************************** Tablature Legend ------------------------ p : pull-off b : bend pb : pre-bend r : bend release (if no number after the r, then release immediately) s : legato slide
Tap to rate this tab
 
# A B C D E F G H I J K L M N O P Q R S T U V W X Y Z