Redemption tab with lyrics by Gackt - Easy chords and tabs for guitar

Gackt – Redemption tab

Gackt - Redemption
Tabbed By: Jose Luis Castañeda

drop D tuning.


Intro:||--19-------17--------------||||-----17-15-------15-15/17--||||--------------14-----------||||---------------------------||||---------------------------||||---------------------------||x8
||-----------------------------------|||-----------------------------------|||------------------5-5-5-5-3-3-3-5--|||--0-0-0-0-3-3-3-3-5-5-5-5-3-3-3-5--|||--0-0-0-0-3-3-3-3-3-3-3-3-1-1-1-3--|||--0-0-0-0-3-3-3-3------------------|
||-----------------------------------||||-----------------------------------||||------------------5-5-5-5----------||||--0-0-0-0-3-3-3-3-5-5-5-5-5-5-5-3--||||--0-0-0-0-3-3-3-3-3-3-3-3-5-5-5-3--||||--0-0-0-0-3-3-3-3---------5-5-5-3--||x2
Chorus:||-----------------------------------|||-----------------------------------|||------------------5-5-5-5-3-3-3-5--|||--0-0-0-0-3-3-3-3-5-5-5-5-3-3-3-5--|||--0-0-0-0-3-3-3-3-3-3-3-3-1-1-1-3--|||--0-0-0-0-3-3-3-3------------------|
||-----------------------------------||||-----------------------------------||||------------------5-5-5-5----------||||--0-0-0-0-3-3-3-3-5-5-5-5-5-5-5-3--||||--0-0-0-0-3-3-3-3-3-3-3-3-5-5-5-3--||||--0-0-0-0-3-3-3-3---------5-5-5-3--||x3
||----------||||----------||||----------||||--0-0-0-0-||||--0-0-0-0-||||--0-0-0-0-||x6
Bridge:||--------------------|||--------------------|||--7-7-8-5-7-7-8-----|||--7-7-8-5-7-7-8-----|||--5-5-6-3-5-5-6-----|||--------------------|
||--------------------||||--------------------||||--7-7-8-5-7-7-8-5---||||--7-7-8-5-7-7-8-5---||||--5-5-6-3-5-5-6-3---||||--------------------||x4
Outro:||-----------------------------------|||-----------------------------------|||------------------5-5-5-5-3-3-3-5--|||--0-0-0-0-3-3-3-3-5-5-5-5-3-3-3-5--|||--0-0-0-0-3-3-3-3-3-3-3-3-1-1-1-3--|||--0-0-0-0-3-3-3-3------------------|
||-----------------------------------||||-----------------------------------||||------------------5-5-5-5----------||||--0-0-0-0-3-3-3-3-5-5-5-5-5-5-5-3--||||--0-0-0-0-3-3-3-3-3-3-3-3-5-5-5-3--||||--0-0-0-0-3-3-3-3---------5-5-5-3--||x9
||----------||||----------||||----------||||--0-0-0-0-||||--0-0-0-0-||||--0-0-0-0-||x3
Guitar 2 now I'm not sure of this part but i think its something like this(this is almost at the beginning; between 0:16 and 0:17) :
||----------10---------------------||||---------------------10----------||||--10--12------10-12--------------||||---------------------------12----||||---------------------------------||||---------------------------------||
i couldn't get the other part of the guitar in 2:21.(the higher pitched notes) sorry=P first tab.Play around till you get the rythm and the rest I'm pretty sure it has these notes:
||---------------------------------||||--10-8---------------------------||||---------------------------------||||---------------------------------||||---------------------------------||||---------------------------------||
the part at (2:36) i think is like the bridge itself(same rythm and pattern) but with these notes instead
||--10-10-11-8---------------------||||--10-10-11-8---------------------||||---------------------------------||||---------------------------------||||---------------------------------||||---------------------------------||
I hope this first tab of mine is useful.good luck.
Please rate this tab:
x1.0