Space Invaders tab with lyrics by Gama Bomb - Easy chords and tabs for guitar

Gama Bomb – Space Invaders tab

Artist: Gama Bomb
Title: Space Invaders
Album: Citizen Brain
Transcribed by: Kenzo Aku
Email: kenzo_aku(a)hotmail(dot)com

x2|-------------------------------------------------------------||-------------------------------------------------------------||-------------------------------------------------------------||-------------------------5--5--------------------------------||-------------------------3--3--------------------------5--5--||-2-3-5-2-3-5-2-3-5-2-3-5-------2-3-5-2-3-5-2-3-5-2-3-5-3--3--| * * * * * * * * * * * * * * * * * * * * * * * *
|-------------------------------------------------------------||-------------------------------------------------------------||-------------------------------------------------------------||-------------------------5--5--------------------------------||-------------------------3--3--------------------------3--5--||-2-3-5-2-3-5-2-3-5-2-3-5-------2-3-5-2-3-5-2-3-5-2-3-5-1--3--| * * * * * * * * * * * * * * * * * * * * * * * *
x2|-------------------------------------------------------------||-------------------------------------------------------------||-------------------------------------------------------------||-------------------------5--5--------------------------------||-------------------------3--3--------------------------5--5--||-2---2-2-2-2-2-2-2-2-2-2-------2---2-2-2-2-2-2-2-2-2-2-3--3--| * * * * * * * * * * * * * * * * * * * * * *
|-------------------------------------------------------------||-------------------------------------------------------------||-------------------------------------------------------------||-------------------------5--5--------------------------------||-------------------------3--3--------------------------3--5--||-2---2-2-2-2-2-2-2-2-2-2-------2---2-2-2-2-2-2-2-2-2-2-1--3--| * * * * * * * * * * * * * * * * * * * * * *
x1|-------------------------------------------------------------||-------------------------------------------------------------||-------------------------------------------------------------||-------------------------------------------------------------||-7-------10------9-------8-------7-------10------9-------8---||-5-------8-------7-------6-------5-------8-------7-------6---|
|--------------------------------------------------------------||--------------------------------------------------------------||--------------------------------------------------------------||--------------------------------------------------------------||-4-4-4-4-4-7-7-7-7-7-6-6-6-6-6-5-5-5-5-5-4-4-4-4-4-7-7-7-7-7--||--------------------------------------------------------------| * * * * * * * * * * * * * * * * * * * * * * * * * * * * * *
---------------------------------|---------------------------------|---------------------------------|---------------------------------|-6-6-6-6-6-5-5-5-5-5-4-4-4-4-4---|---------------------------------| * * * * * * * * * * * * * * *
x2|--------------------------------------------------------------||--------------------------------------------------------------||--------------------------------------------------------------||---------------------------5-4-2------------------------------||-2---3--3--3-5-2-2---3--3--3-2-0-2---3--3--3-5-2--------------||-0---2--2--2-3-0-0---2--2--------0---2--2--2-3-0--12-11-10-9--| * * * *
-------------------|-------------------|-------------------|-------------------|-------------------|-8-7-6-5-----------| * * * *
|--------------------------------------------------------------||--------------------------------------------------------------||--------------------------------------------------------------||---------------------------5-4-2------------------------------||-2---3--3--3-5-2-2---3--3--3-2-0-2---3--3--3-5-2--------------||-0---2--2--2-3-0-0---2--2--------0---2--2--2-3-0--5-6-7-8-9---| * * * * *
-------------------|-------------------|-------------------|-------------------|-------------------|-10-11-12----------| * * *
\_GO UP & REPEAT WHOLE_/ [x1]
x1|-------------------------------------------------------------||-------------------------------------------------------------||-------------------------------------------------------------||-------------------------------------------------------------||-2-----3-2-----3-2-----3-2-2-2-2-2-2-2-2-2-2-2-2-2-2-2-2-----||-0-----1-0-----1-0-----1-0-0-0-0-0-0-0-0-0-0-0-0-0-0-0-0-----| * * * * * * * * * * * * * * * *
x4|--------------------------------------------------------------||--------------------------------------------------------------||--------------------------------------------------------------||-----------------7---------7---------7-9----------------------||-2---3--3--3-5-2-5-5-5-5-5-5-5-5-5-5-5-7-2---3--3--3-5-2------||-0---2--2--2-3-0-------------------------0---2--2--2-3-0-0-0--| * * * * * * * * * *
-------------------|-------------------|-------------------|-------------------|-------------------|-0-0-0-0-0-0-------| * * * * * *
x4|-------------------------------------------------------------||-------------------------------------------------------------||-------------------------------------------------------------||-------------------------------------------------------------||-7------7------3---------------------------------------------||-5--5-0-5--5-0-1--1-0-1-0-1-0--------------------------------| * * * * * * * * * *
[PLAY STRANGE THINK]
x1|-------------------------------------------------------------||-------------------------------------------------------------||-------------------------------------------------------------||-------------------------5--5--------------------------------||-------------------------3--3--------------------------5--5--||-2-3-5-2-3-5-2-3-5-2-3-5-------2-3-5-2-3-5-2-3-5-2-3-5-3--3--| * * * * * * * * * * * * * * * * * * * * * * * *
|---------------------------------------------------------------||---------------------------------------------------------------||---------------------------------------------------------------||-------------------------5--5----------------------------------||-------------------------3--3--------------------------3--5-4--||-2-3-5-2-3-5-2-3-5-2-3-5-------2-3-5-2-3-5-2-3-5-2-3-5-1--3-2--| * * * * * * * * * * * * * * * * * * * * * * * *
END Legend --------------------- * - Palm Mute x# - repeat 3 times
Please rate this tab:
x1.0