Garbage - Silence Is Golden tab

Garbage - Silence Is Golden
Tabbed By: Myke
EMail: A_Violet_Fluid@hotmail.com


Standard Tuning

Intro/Bridge (Both Guitars):

|--------------------------0--------------------------0--||--------------------------0--------------------------0--||--------------------2-4-2----2-2-2-2-2-2-2-----2-4-2----||--4-4-4-4-4-4-4--/4-2-4-2----2-2-2-2-2-2-2--/4-2-4-2----||--4-4-4-4-4-4-4--/4----------0-0-0-0-0-0-0--/4----------||--2-2-2-2-2-2-2-----------------------------------------|
Verse (Guitar 1):
A E F#m E|-----0---------0---------------------------||--------2---------0------2---------0-------||----------2---------1-------2---------1----||------------------------------4---------2--||--0----------------------------------------||------------0---------2---------0----------|
Verse (Guitar 2):
|--/7~~~~-----------------0--||--/7~~~~-----------------0--||-------------------2-4-2----||----------------/4-2-4-2----||----------------/4----------||----------------------------|
Pre-Chorus (Both Guitars):
|--------------------------------------------------------------||--------------------------------------------------------------||--2-2-2-4b5r4p2--------4b5r4p2--4-4-4-4b5r4p2-----------------||--2-2-2----------2-2-2----------4-4-4----------5-5-5-5-5-5-5--||--0-0-0----------2-2-2----------2-2-2----------5-5-5-5-5-5-5--||-----------------0-0-0-------------------------3-3-3-3-3-3-3--|
INTERLUDE
|---------------------------------------------------||---------------------------------------------------||---------------------------------------------------||--4-4-4-4-4-4-4-4-4-4-4-4-5-5-5-5-5-5-5-5-5-5-5-5--||--4-4-4-4-4-4-4-4-4-4-4-4-5-5-5-5-5-5-5-5-5-5-5-5--||--2-2-2-2-2-2-2-2-2-2-2-2-3-3-3-3-3-3-3-3-3-3-3-3--|
|-----------------------------------||-----------------------------------||-----------------------------------||--4-4-4-4-4-4-4-4-4-4-4-4-4-4-4-4--||--4-4-4-4-4-4-4-4-4-4-4-4-4-4-4-4--||--2-2-2-2-2-2-2-2-2-2-2-2-2-2-2-2--|
Outro:
|---------------------------------------------------||---------------------------------------------------||--12-12-12-12-11-11-11-11-14-14-14-14-14-14-14-14--||--12-12-12-12-11-11-11-11-14-14-14-14-14-14-14-14--||--10-10-10-10-9--9--9--9--12-12-12-12-12-12-12-12--||---------------------------------------------------|
|-----------------------------------||-----------------------------------||-----------------------------------||--9-9-9-9-9-9-9-9-9-9-9-9-9-9-9-9--||--9-9-9-9-9-9-9-9-9-9-9-9-9-9-9-9--||--7-7-7-7-7-7-7-7-7-7-7-7-7-7-7-7--|
End On:
|------------------------------------------||------------------------------------------||--11-11-11-11-11-11-11-11-11-11-11-11-11--||---x--x--x--x--x--x--x--x--x--x--x--x--x--||---9--9--9--9--9--9--9--9--9--9--9--9--9--||---7--7--7--7--7--7--7--7--7--7--7--7--7--|
Tap to rate this tab
 
# A B C D E F G H I J K L M N O P Q R S T U V W X Y Z