Run For Cover tab with lyrics by Gary Moore - Easy chords and tabs for guitar

Gary Moore – Run For Cover tab

Artist    ~ Gary Moore
Song      ~ Run for cover
Tabbed by ~ Terry Sims (Masterofdarknes)
Email     ~ Floyd_Fan89@teenspot.com


Intro / Bridge-----------------------------------------------------------------|-----------------------------------------------------------------|-4-----------------------------6---------------------------------|-4-----------------------------6-----------------------------1-3-|-2-----------------------------4---------------------------4-----|-----------------------------------------------------------------|
-----------------------------------------------------------------|------------------------------------------------[7p]-/\----------|-2---------------------------6-4---------------------------------|-2---------------------------6-4---------------------------------|-0---------------------------4-2---------------------------------|-----------------------------------------------------------------|
Bridge to Verse |
-----------------------------------------------------------------|-----------------------------------------------------------------|-2-----------------2---1---2-4---2-----------------2---1---2-4---|-4-------------2-4---------------4-------------2-4---------------|-4-----------4-------------------4-----------4-------------------|-2---2-2-2-2---------2---2-----2-2---2-2-2-2---------2---2-----2-|
-----------------------------------------------------------------|-----------------------------------------------------------------|-2---1-------------2---1-----------------------------------------|-2---2-------------2---2---4-2-----7-----------------------------|-2-----------------------------2-4-5---5-4---4-2---2-0---0-------|-0-----0-0-0-0-0-0---0---0---------------------------------4--0--|
Verse |
-----------------------------------------------------------------|-----------------------------------------------------------------|-2-----------------2---1---2-4---2-----------------2---1---2-4---|-4-------------2-4---------------4-------------2-4---------------|-4-----------4-------------------4-----------4-------------------|-2---2-2-2-2---------2---2-----2-2---2-2-2-2---------2---2-----2-|
-----------------------------------------------------------------|-----------------------------------------------------------------|-2---1-------------2---1-----------------------------------------|-2---2-------------2---2---4-2-----7-----------------------------|-2---------------------------------5---5-5-5-5-5-5-5-4-2-0-4-2-0-|-0-----0-0-0-0-0-0---0---0-----0-0-------------------------------|
-----------------------------------------------------------------|-----------------------------------------------------------------|-2-----------------2---1---2-4---2-----------------2---1---2-4---|-4-------------2-4---------------4-------------2-4---------------|-4-----------4-------------------4-----------4-------------------|-2---2-2-2-2---------2---2-----2-2---2-2-2-2---------2---2-----2-|
-----------------------------------------------------------------|-----------------------------------------------------------------|-2---1-------------2---1-----------------------------------------|-2---2-------------2---2---4-2-----------------------------------|-2---------------------------------------------------------------|-0-----0-0-0-0-0-0---0---0-----0---=>-Chorus---------------------|
Chorus |
-----------------------------------------------------------------|-----------------------------------------------------------------|-----------------------------------------------------------------|-6-----------------2---2---2-2---6-----------------2---2---2-2---|-4-----4-4-4-4-4-4-0-0-0-0-0-0-0-4-----4-4-4-4-4-4-0-0-0-0-0-0-0-|-----------------------------------------------------------------|
-----------------------------------------------------------------|-----------------------------------------------------------------|-----------------------------------4-----------------5-----5-----|-6-----------------2---2---2-2-----4-------------------4-----4---|-4-----4-4-4-4-4-4-0-0-0-0-0-0-0-0-2---------------2-----2-----2-|-----------------------------------------------------------------|
-----------------------------------------------------------------|-----------------------------------------------------------------|-----------------------------------------------------------------|-6-----------------2---2---2-2---6-----------------2---2---2-2---|-4-----4-4-4-4-4-4-0-0-0-0-0-0-0-4-----4-4-4-4-4-4-0-0-0-0-0-0-0-|-----------------------------------------------------------------|
-----------------------------------------------------------------|-----------------------------------------------------------------|-----------------------------------4-----------------------------|-6-----------------2---2---2-2-----4-----------------------------|-4-----4-4-4-4-4-4-0-0-0-0-0-0-0-0-2---=>-Next-------------------|-----------------------------------------------------------------|
--------First-Chorus------------------|--------Second-Chorus-----|--------------------------------------|--------------------------|--------------------------------------|-4------------------------|--------------------------------------|-4------------------------|-5--4--2--0--4--2--0--=>-Second-Verse-|-2------------------------|--------------------------------------|--------------------------|
----------------------------------------------|------before-solo-|----------------------------------------------|------------------|----------------------------------------------|------------------|----------------------------------------------|-7v---------------|-5--4--2--0--4--2--0--=>-The-Verse------------|------------------|----------------------------------------------|------------------|
The Main Guitar Solo |
-----------------------------------------------------------------|-----------------------------------------------------------------|-2-----1~2~1--(dive & return)--1-2-4-2~4~2-1---------------------|---------------------------------------------4-2-4(6)-4----11~12-|-----------------------------------------------------------------|-----------------------------------------------------------------|
-----------------------------------------------------------------|--------------------------------------14----15-14~15~14~---------|-13--------14--------14/16---14~16~14~---16--------------16--14--|-----11~12~----11~12~--------------------------------------------|-----------------------------------------------------------------|-----------------------------------------------------------------|
-----------------------------------------------------------------|-----------------------------------------------------------------|-13------11(13)--down----=>-next---------------------------------|-----14----------------------------------------------------------|-----------------------------------------------------------------|-----------------------------------------------------------------|
---2~4~2-------2~4~2-------2~5~2-------2~4~2---=>-next-----------|-5-------5~2~5-------5~2~5-------5~2~5---------------------------|-----------------------------------------------------------------|-----------------------------------------------------------------|-----------------------------------------------------------------|-----------------------------------------------------------------|
-------2~5~------------------------------------------------------|-5~2~5-----2~------2~5~2-------2~5~2-------2~--------------------|-------------4~2~4-------4~2~4-------4~2~4---4~2~4-1~2~1~--------|----------------------------------------------------------2~4~2--|-----------------------------------------------------------------|-----------------------------------------------------------------|
--------------------------------------------------14----14-17-16-|-----------------------------------------------------17----------|-----------------------------------------------------------------|---2~4~2---------------------------------------------------------|-4-------4~3~2~--------------------------------------------------|---------------5-2v----------------------------------------------|
-14----14----------------14~16~14----------14~16~14----------14--|----17----14-17----14-17----------17-14-17----------17~14~17-----|----------------16-----------------------------------------------|-----------------------------------------------------------------|-----------------------------------------------------------------|-----------------------------------------------------------------|
----------14-17~14----------14~17~14-------19(21)----------------|-17~14~17----------17~14~17----------17~14-----------------------|-----------------------------------------------------------------|-----------------------------------------------------------------|-----------------------------------------------------------------|-----------------------------------------------------------------|
Please rate this tab:
x1.0