Gazette - Cassis tab

Aoi [Ending Solo]


E||------14--------15--------14--|--L-------------------10--10------|B||--12--------12--------12------|-----12--12---10--10----------12--|G||------------------------------|----------------------------------|D||------------------------------|----------------------------------|A||------------------------------|----------------------------------|E||------------------------------|----------------------------------|
---------------------------14------|-------15-----------------------|--12---10--10--10--12-L--------12--|-----------12--12---10--10---8--|-----------------------------------|--------------------------------|-----------------------------------|--------------------------------|-----------------------------------|--------------------------------|-----------------------------------|--------------------------------|
------14--------15--------14--|---------------------10--10------|--12--------12--------12------|-----12--12--10--10----------12--|------------------------------|---------------------------------|------------------------------|---------------------------------|------------------------------|---------------------------------|------------------------------|---------------------------------|
---------------------------14------|-------15---------------------|--12---10--10--10--12----------12--|-----------12--12---10--------|-----------------------------------|------------------------------|-----------------------------------|------------------------------|-----------------------------------|------------------------------|-----------------------------------|------------------------------|
--/17-17-17-17----(17)\---/17-17-17-17--15-14-|----------------------------------------------|----------------------------------------------|----------------------------------------------|----------------------------------------------|----------------------------------------------|
--15-14----12--14-----12--14-----|-------------15--------------|------------------------------15-|--14-12----------------------|---------------------------------|-----------------------------|---------------------------------|-----------------------------|---------------------------------|-----------------------------|---------------------------------|-----------------------------|
-----14------12-----------------|-------------------------------|--------------------------------|--/19----22---------22---------|--------------------------------|--/21b-------21b--------21b----|--------------------------------|-------------------------------|--------------------------------|-------------------------------|--------------------------------|-------------------------------|
-------------------------------|-------------------------------|--22---------22----------------|-------------------------------|------21b--------21b----21b----|--21br------19--16--(16)\------|-------------------------------|-------------------------------|-------------------------------|-------------------------------|-------------------------------|-------------------------------|
--14--14--14---12--12--10--10----9---|-----------------------------|-------------------------------------|-----8--8---7--7---5--5---3--|--16--16--16---14--14--12--12----11--|--9--------------------------|-------------------------------------|-----------------------------|-------------------------------------|-----------------------------|-------------------------------------|-----------------------------|
-----------/7-----------------|------------------------|--3---------------------------|------------------------|-----3--3---------6--7--6-7-6-|----------/12-----------|------------------------------|--9---------------------|------------------------------|------------------------|------------------------------|------------------------|
-------------------------|------------17-------------17--|-------------------------|-------------------------------|--11---------------------|--18--19-----------18--19------|-----------14------------|-------------------------------|-------------------------|-------------------------------|-------------------------|-------------------------------|
-------------17----------17------|----------15-----------|---------------------------------|-----------------------|-----18--19------18--19------18--|--16-------------------|---------------------------------|-----------------------|---------------------------------|-----------------------|---------------------------------|-----------------------|
--17br------------15--14-15-14----|--12--------14----10----|----------------------------------|------------------------|----------------------------------|------------------------|----------------------------------|------------------------|----------------------------------|------------------------|----------------------------------|------------------------|
(note) - ghost note b - bend br - bendRelease / - slide into from below or out of upwards \ - slide into from above or out of downwards
Tap to rate this tab
 
# A B C D E F G H I J K L M N O P Q R S T U V W X Y Z