Keyboard Suite Vol 2 No 4 In Dm Hwv 437 - 2 Allemande tab with lyrics by George Frederic Hande - Easy chords and tabs for guitar

George Frederic Hande – Keyboard Suite Vol 2 No 4 In Dm Hwv 437 - 2 Allemande tab

Georg Friedrich Hдndel (1685 - 1759)
--------------------
2: Allemande from Suite in Dm HWV 437
----------

Time Signature: C (4/4)
Tempo: 4th (|) = 60bpm

Tuning: Drop D (DADGBE)

| . . . | . . . | . . . | . . .E|-5----|5--3--1--0--5--5--6--3--5--3--1--0--5--5--6--8--|B|------|3-----------6-----------3-----------6-----------|G|o-----|------2-----------0-----------2-----------5-----|D|o-----|------------0-----------------------0-----------|A|------|------------------------------------------------|D|------|------------------------------------------------|
| . . . | . . . | . . . | . . .|10----------10-13-12-10-10----9--------9--10-12-||---10-8-----8-----11----10----------10----------||---------10-------0-----------9-----------------||8-----7-----8-----------7-----------------11----||------------------------------------------------||------------------------------------------------|
| . . . | . . . | . . . | . . .|13----12----10----8-----6-----5-----3-----8-----||---------10----8-----6-----8-----6-----5-----5--||---14-------------------------------5-----------||12----10----8-----7-----5-----3-----------7-----||------------------------------------------------||------------------------------------------------|
tr~ | . . . | . . . | . . . | . . .|1--0--1--3--5-----3-----5-----------8-----------||3-----------------------------6(8)--8-----------||------3-----5-----------------------9-----------||------------------------3-----------------------||------------------3--------------------7--5--3--||------------------------------------------------|
| . . . | . . . | . . . | . . .|---6--5-----10-------------8--7-----12----------||---------8--10----------5--------10-12----------||7-----------10----------------------------------||5-----------------------7-----------------------||---------------8--7--5-----------------11-9--7--||------------------------------------------------|
| . . . | . . . | . . . | . . .|------13-13----12-12-12-10-------------8--8--8--||---10-------------------------------------------||------------12-------------10-10-10-9-----------||10----12----------10----------------9-----------||------------14----------8-----10----------0-----||------------------------------------------------|
tr~ | . . . | . . . | . . . | . . .|---8--7--5--4-----5-----7-----8--10-7(8)-----5--||6-----------5-----------------------------------||------7-----7--5--4-----------------------------||0--------------------7--6-----7-----------6-----||------------7--------------7--------7-----------||---------------------------------12-------------|
| . . . | . . . | . . . | . . .|5--------------5-----4--5-----------|-----12----||5-----------------0-----5-----------|-----------||6-----------------------6----------o|o----------||7-----------------2-----7----------o|o----------||------0-----4-----------7-----------|-----------||------------------------7-----------|-----------|
| . . . | . . . | . . . | . . .|12-10-9-----12-12-13-10-12-10-9--7--9-----12----||10-------12-14----------10-------------8--------||------9-----------------------9-----------10-9--||------------------9-----------------7-----------||------------12----------------------------------||------------------------------------------------|
| . . . | . . . | . . . | . . .|13----------13-17-15-13-13----12-------8--13-12-||---10-12-13-12----0-----13----------------------||------------0-----------------------------------||12----0-----------------------10----7-----------||------------------------------------------8-----||------------------------10----------------------|
| . . . | . . . | . . . | . . .|10-5--6-----10-10-12-6--8--3--5--0--8--8--13-12-||---------6--8-----------------------6-----------||------------------------------------------------||8-----------8--------5--7-----------7-----------||------------------12----------0-----------10-8--||------8-----------------------------------------|
| . . . | . . . | . . . | . . .|10-8--6--5--3--6-----1--0-----------------1--0--||------------------3-----1--------------1--------||------------------------0-----------------2-----||8--------------------------0--------------------||------------1-----------1-----3--1--0-----------||------------------------------------------------|
| . . . | . . . | . . . | . . .|---5--3--1--0--6--5--3--1-----------3-----5-----||3--------------------------1--------------------||------3-----------5-----------3--2--0-----------||------------------------0-----------2-----3-----||1-----------3-----------------------------------||------------------------------------------------|
tr~ | . . . | . . . | . . . | . . .|5-----3--1--0(1)-----1--1--------------8--13-12-||------------------------------------------------||------------0-----3-----2-----3-----5-----------||------------------------3-----5-----7------7----||1-----------3------------------------------8----||------------------------------------------------| * (see below tab)
| . . . | . . . | . . . | . . .|10-------------13-12-10-9--------------13-12-10-||11----------------------10----------------------||10----------------------9-----------------------||------------------------------------------------||------13-12-10----------------12-10-8-----13----||---8-----------------------14-------------------|
| . . . | . . . | . . . | . . .|18-------------12-10-8--17-------------13-13-13-||------------------------------------------------||------------------------------------------------||------------10----------------------------12----||---10-12-13-------------------------------------||------------------10-------17-15-14-12----------|
| . . . | . . . | . . . | . . .|---12-12-12-10-------------8--8--8--6-----------||---------------6--6--6--5-----------------------||12-------------------------------------7--7--7--||------10----------5-----7-----------0-----------||13----------8-----------------0-----------7-----||------------------------------------------------|
| . . . | . . . | . . . | . . .|---5--5--5--6--------------1--0-----------------||---------------------------------3--2--------3--||5--------------3--3--3--2-----------------0-----||3-----------------------0-----------2-----------||------------------3-----------------0-----------||------3-----8-----------------5-----------------|
| . . . | . . . | . . . | . .|---------------------------------------------|||3--------------3-----2--3--------------------|||2-----------------------2-------------------o|||3-----------------2-----3-------------------o|||5-----------------0-----5--------------------|||------0-----3-----------0--------------------||
* - Seeing as this one is a bit of a stretch, you might want to play it like this, depending on your guitar. (I don't have very good accessibility on the higher frets due to the body of the guitar, so it's a stretch anyhow.)
tr~ | . . . | . . . | . . . | . . .|5-----3--1--0(1)-----1--1--------------8--13-12-||------------------------------------------------||------------0-----3-----2-----3-----5-----------||------------------------3-----5-----7-----------||1-----------3-----------------------------12----||------------------------------------------15----| *
Transcribed by Aleksander Luneborg (blondus[at]gmail[dot]com) - for suggestions or corrections
Please rate this tab:
x1.0