Gilmour David - Raise My Rent tab

#----------------------------------PLEASE NOTE---------------------------------#
#This file is the author's own work and represents their interpretation of the #
#song. You may only use this file for private study, scholarship, or research. #
#------------------------------------------------------------------------------#

Song:   Raise My Rent
Artist: David Gilmour

I noticed very few posts for David Gilmour's solo
efforts, so here's the instrumental "Raise My Rent"
from his self-titled album released in 1978.

Transcribed by Rick Walker

---------------------------------------------0-----------3--------------------------0-----------0---------------2-----------2/4--------4/2-------------------------------------------0---------------------------0------
-------------3-----------------------------------0-------0----------------------------5-------------5---------------------4-------------------4/2---4---------0------------------------0--------------------------------------------------
-------------3---------------3-------0------------------0-------0------------0-------3--------------5-------------5-----------------0----------4-------------------4/2-----2/4------4/2---0------------------------0--------------------------------------------------------------0-
---------------------------------------------0-----------3--------------------------0-----------0---------------2-----------2/4--------4/2-------------------------------------------0---------------------------0------
C---0--0-0--0--0-0---------------------1-1--1-1--1--1-1---------------------0-0--0-0--0--0-0--------------------------2-2------------------------------------3-----------------------------------------------------------------
Here's the first part of the solo:
-------------------------------15------15b--12h15-15b--15p12--15-15b---15b/-----------------------------------------------------------------------------------------------------------------------------------------------------
------17b-17b--15-17-17-17b-17p15----15-------15------------------------------17----17b---------------------------------------------------------------------------------------------------------------------------------------------------------------------------------
--------------15v-15b-----------12-----------------15--17-----------17v---12----15-12-15b---16--------------------------------------------------------------------------------------------------------------------------------------------------------------------------------
------------------------------------------------------15-13--12-12br----12-----------------------------------------------14----14brp12----12-14-14brp12------------------------------------14---------------14v---------------------------------------------------------------------------------------------------------
---------------------12--15b--15v-14-15-14v-------------------------15bv---------------------------------12-14--14brp12-------------------------------------------------------------------------------------------------------------------------------------------------------------------------------------------------
------------15-12-----------12----------------------15p12-15b-------15p12--------15-12--------------------------------------14b----------14-14br------------------------------------------------------------------------------------------------------------------------------------------------------------
-----------------------------------------------------------------------------------------------------------12-14brp12----12b-12-14-14brp12------14-12------14------------14-------------------14-12-----14/-------------------------------------------------------------------------------------------------------
--------------------------------------------------------------------------------------------11-12v-------0--2-2b-2b--2br--0----------12-14-15-----------2b--------------------2v---/14----------------------------------------------------------------------------------------------------------------------
Tap to rate this tab
 
# A B C D E F G H I J K L M N O P Q R S T U V W X Y Z