Girl In A Coma - Simple Man tab

Girl In A Coma

"Simple Man"


---(0)-------------|---(0)-------------|----2----4---5--6--| x2----3----5---5--7--|----3----5---3--7--|---------3------5--|
----0----0---------|----0----0---------|----4----1---------| x2----5----2---------|----5----2---------|-------------------|
----0----0------------|----0----0------------|----2----4---5--5--5--| x4----3----5---5--5--5--|----3----5---3--3--3--|----------------3-----|
----0---0------|----0-----0----|----2-------2--| x2----3----------|----3----------|---------------|
---(0)-------------|---(0)-------------|----2----4---5--6--| x2----3----5---5--7--|----3----5---3--7--|---------3------5--|
----0----0---------|----0----0---------|----4----1---------| x2----5----2---------|----5----2---------|-------------------|
----0----0------------|----0----0------------|----2----4---5--5--5--| x4----3----5---5--5--5--|----3----5---3--3--3--|----------------3-----|
----------------------------------------------------------------------------|----------------------------------------------------------------------------|----------------------------------------------------------------------------|-7-7-7-7-7-7/3-0------------------------5---3/2-----------------7-----------|------------------------5---3/2---3-3-3---3-----3--3/5--5-5-5-5-------------|------------------3-3-3---3-----3-------------------------------------------|
--------------------------|--------------------------|---------------------4----|--7-7-7-7-7-7/3-0----5----|---------------------5----|---------------------3----|
-------------------------------------0--0---------0--0---|-------6--6--6--------6--6--6--------0--0---------0--0---|-5--5--7--6--6--5--5--7--6--6--5--5--2--4---5--5--2--4---|-7--6--7--6--5--7--6--7--6--5--7--6--3--5---7--6--3--5---|-7--7-----------7--7-----------7--7--3--5---7--7--3--5---|---------------------------------------------------------|
----------------------------------------------------------------------------|----------------------------------------------------------------------------|----------------------------------------------------------------------------|-7-7-7-7-7-7/3-0------------------------5---3/2-----------------7-----------|------------------------5---3/2---3-3-3---3-----3--3/5--5-5-5-5-------------|------------------3-3-3---3-----3-------------------------------------------|
--------------------------|--------------------------|---------------------4----|--7-7-7-7-7-7/3-0----5----|---------------------5----|---------------------3----|
------------------------------------------|---------6---5--6---5----------6--5-------|--5--5---7---6--7---6---5---5--7--6-------|--7--6---7---6--7---6---7---6--7--6-------|--7--7---5---5--5---5---7---7--5--5-------|------------------------------------------|
Tap to rate this tab
 
# A B C D E F G H I J K L M N O P Q R S T U V W X Y Z