Glassjaw - Pink Roses tab

Artist: Glassjaw
Title: Pink Roses
Tuning: Dropped D (DADGBe) Low to high
Tabber: a_guy_called_richard@hotmail.com

Tuning: Drop D


Awesome song.


Intro:

Rhythm:|------------------------------||------------------------------||------------------------------||-3-2-0-3-2-0-3----------------||-3-2-0-3-2-0-3----------------||-3-2-0-3-2-0-3----------------|PM. . . . . .
Lead:|---------------0-----3-0------||---------------0---------0----||---------------0-----------2--||-3-2-0-3-2-0-3----------------||-3-2-0-3-2-0-3----------------||-3-2-0-3-2-0-3----------------|PM. . . . . .
Verse:
Rhythm:|-----------------------------------------------------------||-----------------------------------------------------------||-----------------------------------------------------------||-8--0--0-0-0-0-0--0-0-0-0-0-0-1--0--0-0-0-0-0--0-0-0-0-0-0-||-8--0--0-0-0-0-0--0-0-0-0-0-0-1--0--0-0-0-0-0--0-0-0-0-0-0-||-8--0--0-0-0-0-0--0-0-0-0-0-0-1--0--0-0-0-0-0--0-0-0-0-0-0-|PM . . . . . . . . . . . . . . . . . . . .
|-----------------------------------------------------------||-----------------------------------------------------------||--------------------------------------------3-----3-----3--||-8--0--0-0-0-0-0--0-0-0-0-0-0-1--0--0-0-0-0-3-----3-----3--||-8--0--0-0-0-0-0--0-0-0-0-0-0-1--0--0-0-0-0-1-----1-----1--||-8--0--0-0-0-0-0--0-0-0-0-0-0-1--0--0-0-0-0-1-----1-----1--|PM . . . . . . . . . . . . . .
Lead: I've tried to match it to the above to get the timing right|-----------------------------------------------------------||------5----------------------------5-----------------------||-7----------------------------7----------------------------|x 2|-----------------------------------------------------------||-----------------------------------------------------------||-----------------------------------------------------------|Let the notes ring and you'll get a 'Crashing' sound... i think thats what its called
Play each one 8 times, played very fast.|------------------------||-10-10-10-12-14-17-19---||------------------------||-8--8--8--10-12-15-17---||------------------------||------------------------|
|-----------------------------------------------------------||------5----------------------------5-----------------------||-7----------------------------7----------------------------||-----------------------------------------------------------||-----------------------------------------------------------||-----------------------------------------------------------|
|-----------------------------------------------------------||-----------------------------------------------------------||-15----------15--------------------------------------------||-18b---------18b-------------------------------------------||-----------------------------------------------------------||-----------------------------------------------------------|
Chorus: This is really hard to figure out. What i've put below sounds ok, but its definatly not it. Tell me what you think. Theres a bit of lead in here tyoo, but i cant hear it properly.
Both Guitars: |-----------------------------------------------------------------||-----------------------------------------------------------------||-----------------------------------------------------------------||-6-6-6-6-6-6-6-6-6-6-6-6-3-3-3-3-4-4-4-4-4-4-4-4-4-4-4-4-4-4-4-4-||-4-4-4-4-4-4-4-4-4-4-4-4-1-1-1-1-2-2-2-2-2-2-2-2-2-2-2-2-2-2-2-2-||-4-4-4-4-4-4-4-4-4-4-4-4-1-1-1-1-2-2-2-2-2-2-2-2-2-2-2-2-2-2-2-2-|Play that a few times.
Verse 2: Turn the volume down on your guitar before this bit
Rhythm:|--------------------------------0--------------------------------||--------------------------------0--------------------------------||--------------------------------0--------------------------------||-0---------------------------------------------------3----3----3-||-0---------------------------------------------------1----1----1-||-0---------------------------------------------------1----1----1-|Start turning it on about the 2nd beat, then play the verse normally.
Lead:|-0---------------------------------------------------------------||-0---------------------------------------------------------------||-0---------------------------------------------------------------||-----------------------------------------------------3----3----3-||-----------------------------------------------------1----1----1-||-----------------------------------------------------1----1----1-|
Play the rest of the Verse as normal. Then play the Chorus. Bridge: Listen to the song very carfully, its really confusing
Rhythm:|-----------------------------------------------------------------||-----------------------------------------------------------------||-----------------------------------------------------------------||-0---------------------------------------------------------------||-0---------------------------------------------------------------||-0---------------------------------------------------------------|Start turning your guitar up about on the second beat.
Lead:|-----------------------------------------------------------------||-----------------------------------------17----------------------||-----------------------------------------20b---------------------||-----------------------------------------------------------------||-----------------------------------------------------------------||-----------------------------------------------------------------|
Bridge Part 2:
Rhythm:|-------------------------------------------------------------------||-------------------------------------------------------------------||-------------------------------------------------------------------||-0-0---0-0---0-0---0-0---0-0---0-0---0-0---0-0---0-0---0-9-10-0-13-||-0-0---0-0---0-0---0-0---0-0---0-0---0-0---0-0---0-0---0-9-10-0-13-||-0-0---0-0---0-0---0-0---0-0---0-0---0-0---0-0---0-0---0-9-10-0-13-|
Lead:|-------------------------------------------------------------------||---------------------------------------------------4---------------||-------------------------------------------------7-----------------||-------------------------------------------------------------------||-------------------------------------------------------------------||-------------------------------------------------------------------|Play all of that twice.
Bridge Part 3:
Rhythm:|-------------------------------------------------------------------||-------------------------------------------------------------------||-------------------------------------------------------------------||-0-0-0-0-0-0-0-0-0-0-0-0-0-0-0-0-0-0-0-0-0-0-0-0-0-0-0-0-9-10-0-13-||-0-0-0-0-0-0-0-0-0-0-0-0-0-0-0-0-0-0-0-0-0-0-0-0-0-0-0-0-9-10-0-13-||-0-0-0-0-0-0-0-0-0-0-0-0-0-0-0-0-0-0-0-0-0-0-0-0-0-0-0-0-9-10-0-13-|PM. . . . . . . . . . . . . . . . . . . . . . . . . . . .
|-------------||-------------||-------------||-6-----2-----||-6-----2-----||-6-----2-----|
|-------------------------------------------------------------------||-------------------------------------------------------------------||-------------------------------------------------------------------||-0-0-0-0-0-0-0-0-0-0-0-0-0-0-0-0-0-0-0-0-0-0-0-0-0-0-0-0-9-10-0-13-||-0-0-0-0-0-0-0-0-0-0-0-0-0-0-0-0-0-0-0-0-0-0-0-0-0-0-0-0-9-10-0-13-||-0-0-0-0-0-0-0-0-0-0-0-0-0-0-0-0-0-0-0-0-0-0-0-0-0-0-0-0-9-10-0-13-|PM. . . . . . . . . . . . . . . . . . . . . . . . . . . .
|-------------------||-------------------||-------------------||-9-10-0-13-0-0-0-0-||-9-10-0-13-0-0-0-0-||-9-10-0-13-0-0-0-0-|PM . . . .
Lead:|---------------0-0-0-----------------0-0-0-------------------||---------------0-0-0-----------------0-0-0-------------------||---------------0-0-0-----------------0-0-0-------------------||-------------------------------------------------------------||-------------------------------------------------------------||-------------------------------------------------------------|
|---------------0-0-------------------------------------------||---------------0-0-5-----------------------------------------||---------------0-0-8b----------------------------------------||-------------------------------------------------------------||-------------------------------------------------------------||-------------------------------------------------------------|
|---------------0-0-0-----------------0-0-0-------------------||---------------0-0-0-----------------0-0-0-------------------||---------------0-0-0-----------------0-0-0-------------------||-------------------------------------------------------------||-------------------------------------------------------------||-------------------------------------------------------------|
|---------------0-0-------------------------------------------||---------------0-0-5-----------------------------------------||---------------0-0-8b----------------------------------------||-------------------------------------------------------------||-------------------------------------------------------------||-------------------------------------------------------------|
Then play the Chorus Ending:
Rhythm:|-0-----------------------------------------------------||-0-----------------------------------------------------||-0-----------------------------------------------------||-0-----------------------------------------3----3----3-||-0-----------------------------------------1----1----1-||-0-----------------------------------------1----1----1-|
|------------------------------||------------------------------||------------------------------||-3-2-0-3-2-0-3----------------||-3-2-0-3-2-0-3----------------||-3-2-0-3-2-0-3----------------|PM. . . . . .
Lead:|-0------------------16----------16--14-----------------||-0----------------------14-----------------------------||-0--------------------------16-------------------------||-0-----------------------------------------3----3----3-||-0-----------------------------------------1----1----1-||-0-----------------------------------------1----1----1-|
|---------------0-----3-0------||---------------0---------0----||---------------0-----------2--||-3-2-0-3-2-0-3----------------||-3-2-0-3-2-0-3----------------||-3-2-0-3-2-0-3----------------|PM. . . . . .
Both guitars:|------------------------------||------------------------------||------------------------------||-0-0-0-0----0-0-0-0-----------||-0-0-0-0----0-0-0-0-----------||-0-0-0-0----0-0-0-0-----------|PM. . . . . . . .
Confusing? Thought so... Yet another great tab from The Legend
Tap to rate this tab
 
# A B C D E F G H I J K L M N O P Q R S T U V W X Y Z