Psycho tab with lyrics by Goldblade - Easy chords and tabs for guitar

Goldblade – Psycho tab

|-------------------------------||-------------------------------||-------------------------------| (x3)|-------------------------------||--6--6-6-7--7-7-4--4-4--4-4-4--||--4--4-4-5--5-5-2--2-2--2-2-2--|
|--------||--------||--------| (x4)|--------||--3--2--||--1--0--|
|-------------------------------||-------------------------------||-------------------------------| (x3)|-------------------------------||--6--6-6-7--7-7-4--4-4--4-4-4--||--4--4-4-5--5-5-2--2-2--2-2-2--|
|--------||--------||--------| (x4)|--------||--3--2--||--1--0--|
|-------------------------------||-------------------------------||-------------------------------| (x3)|-------------------------------||--6--6-6-7--7-7-4--4-4--4-4-4--||--4--4-4-5--5-5-2--2-2--2-2-2--|
|--------||--------||--------| (x4)|--------||--3--2--||--1--0--|
|-------------------------------||-------------------------------||-------------------------------| (x3)|-------------------------------||--6--6-6-7--7-7-4--4-4--4-4-4--||--4--4-4-5--5-5-2--2-2--2-2-2--|
__________________________________________ Solo: |----------------|
|77777777888888/9||----------------| (x3)|----------------||----------------||----------------|
|--------------------------||77777777888888/12-12---6--||--------------------------||--------------------------||--------------------------||--------------------------|
|--1/12------||---------5--||------------| (x2)|------------||------------||------------|________________________________________________
|--------||--------||--------| (x4)|--------||--3--2--||--1--0--|
|-------------------------------||-------------------------------||-------------------------------| (x3)|-------------------------------||--6--6-6-7--7-7-4--4-4--4-4-4--||--4--4-4-5--5-5-2--2-2--2-2-2--|
|--------||--------||--------| (x4)|--------||--3--2--||--1--0--|
|-------------------------------||-------------------------------||-------------------------------| (x3)|-------------------------------||--6--6-6-7--7-7-4--4-4--4-4-4--||--4--4-4-5--5-5-2--2-2--2-2-2--|
Solo:______________________________________________|--------||--------||--1--0--| (x4)|--------||--------||--------|______________________________________________
|-------------------------------||-------------------------------||-------------------------------| (x3)|-------------------------------||--6--6-6-7--7-7-4--4-4--4-4-4--||--4--4-4-5--5-5-2--2-2--2-2-2--|
Please rate this tab:
x1.0