Good Charlotte - River tab version 2

-------------------------------------------------------------------------------------------------
                               The River by Good Charlotte 
-------------------------------------------------------------------------------------------------

Standard Tuning

Intro

|------------------------------------------------||------------------------------------------------||15-15-15-15-15-15-15-15-16-16-16-16-16-16-16-16-||-x--x--x--x--x--x--x--x--x--x--x--x--x--x--x--x-||13-13-13-13-13-13-13-13-14-14-14-14-14-14-14-14-||------------------------------------------------|
| ||------------------------------------------------||------------------------------------------------||------------------------------------------------||-8--8--8--8--8--8--8--8--4--4--4--4--4--4--4--4-||-6--6--6--6--6--6--6--6--2--2--2--2--2--2--2--2-||------------------------------------------------|
|------------------------------------------------||------------------------------------------------||15-15-15-15-15-15-15-15-13-13-13-13-13-13-13-13-||-x--x--x--x--x--x--x--x--x--x--x--x--x--x--x--x-||13-13-13-13-13-13-13-13-11-11-11-11-11-11-11-11-||------------------------------------------------|
| ||------------------------------------------------||------------------------------------------------||------------------------------------------------||------------------------------------------------||-4--4--4--4--4--4--4--4--6--6--6--6--6--6--6--6-||-2--2--2--2--2--2--2--2--4--4--4--4--4--4--4--4-|
|------------------------------------------------||------------------------------------------------||15-15-15-15-15-15-15-15-16-16-16-16-16-16-16-16-||-x--x--x--x--x--x--x--x--x--x--x--x--x--x--x--x-||13-13-13-13-13-13-13-13-14-14-14-14-14-14-14-14-||------------------------------------------------|
| ||------------------------------------------------||------------------------------------------------||------------------------------------------------||-8--8--8--8--8--8--8--8--4--4--4--4--4--4--4--4-||-6--6--6--6--6--6--6--6--2--2--2--2--2--2--2--2-||------------------------------------------------|
|------------------------------------------------||------------------------------------------------||20-20-20-20-20-20-20-20-20-20-20-20-20-20-20-20-||-x--x--x--x--x--x--x--x--x--x--x--x--x--x--x--x-||18-18-18-18-18-18-18-18-18-18-18-18-18-18-18-18-||------------------------------------------------|
| ||------------------------------------------------||------------------------------------------------||------------------------------------------------||------------------------------------------------||-4--4--4--4--4--4--4--4--4--4--4--4--4--4--4--4-||-2--2--2--2--2--2--2--2--2--2--2--2--2--2--2--2-|
|------------------------------------------------||------------------------------------------------||22\---------------------------------------------||-x----------------------------------------------||20\---------------------------------------------||------------------------------------------------|
| ||------------------------------------------------||------------------------------------------------||------------------------------------------------||-8\---------------------------------------------||-6\---------------------------------------------||-6\---------------------------------------------|
Verse
|------------------------------------------------------------------||------------------------------------------------------------------||------------------------------------------------------------------|-_|----8-----8---8-----8-----8---8-----11-------11-------8-----8---8-| _-X3|6-6---6-6---6---6-6---6-6---6---9-9----9-8-8----8-6-6---6-6---6---|-|------------------------------------------------------------------||_ _ _ _ _ _ _ _ _ _ _ _ _ _ _ _ _ _ _ _ _ |
|------------------------------------------------------------------------||------------------------------------------------------------------------||--------------------------------11-11-11-11-10-10-10-10-8-8-8-8-8-8-8-8-||----8-----8---8-----8-----8---8--x--x--x--x--x--x--x--x-x-x-x-x-x-x-x-x-||6-6---6-6---6---6-6---6-6---6----9--9--9--9--8--8--8--8-6-6-6-6-6-6-6-6-||------------------------------------------------------------------------||_ _ _ _ _ _ _ _ _ _ |
Pre-Chorus (I don't know the lead)
|----------------------------------------------------------------||----------------------------------------------------------------||----6-----6---6-----6-----6---6-----8-----8---8-----8-----8---8-||----------------------------------------------------------------||4-4---4-4---4---4-4---4-4---4---6-6---6-6---6---6-6---6-6---6---||----------------------------------------------------------------||_ _ _ _ _ _ _ _ _ _ _ _ _ _ _ _ _ _ _ _ |
|----------------------------------------------------------------||----------------------------------------------------------------||----------------------------------------------------------------||----------------------------------------------------------------||4-4-4-4-4-4-4-4-4-4-4-4-4-4-4-4-6-6-6-6-6-6-6-6-6-6-6-6-6-6-6-6-||2-2-2-2-2-2-2-2-2-2-2-2-2-2-2-2-4-4-4-4-4-4-4-4-4-4-4-4-4-4-4-4-|
Chorus
|----------------------------------------------------------------||----------------------------------------------------------------||----------------------------------------------------------------|-_|8-8-8-8-8-8-8-8-4-4-4-4-4-4-4-4---------------------------------| _-X2|6-6-6-6-6-6-6-6-2-2-2-2-2-2-2-2-4-4-4-4-4-4-4-4-6-6-6-6-6-6-6-6-|-|--------------------------------2-2-2-2-2-2-2-2-4-4-4-4-4-4-4-4-|
|------------------------------------------------------------------------||------------------------------------------------------------------------||------------------------------------------------------------------------||8-8-8-8-8-8-8-8-11-11-11-11-11-11-11-11---------------------------------||6-6-6-6-6-6-6-6--9--9--9--9--9--9--9--9-4-4-4-4-4-4-4-4-6-6-6-6-6-6-6-6-||----------------------------------------2-2-2-2-2-2-2-2-4-4-4-4-4-4-4-4-|
|------------------------------------------------------------------------||------------------------------------------------------------------------||------------------------------------------------------------------------||8-8-8-8-8-8-8-8-4-4-4-4-4-4-4-4-----------------------------------------| |6-6-6-6-6-6-6-6-2-2-2-2-2-2-2-2-4-4-4-4-4-4-4-4-6-6-6-6-6-6-6-6-6\------||--------------------------------2-2-2-2-2-2-2-2-4-4-4-4-4-4-4-4-4\------|
Verse
|------------------------------------------------------------------||------------------------------------------------------------------||------------------------------------------------------------------|-_|----8-----8---8-----8-----8---8-----11-------11-------8-----8---8-| _-X3|6-6---6-6---6---6-6---6-6---6---9-9----9-8-8----8-6-6---6-6---6---|-|------------------------------------------------------------------||_ _ _ _ _ _ _ _ _ _ _ _ _ _ _ _ _ _ _ _ _ |
|------------------------------------------------------------------------||------------------------------------------------------------------------||--------------------------------11-11-11-11-10-10-10-10-8-8-8-8-8-8-8-8-||----8-----8---8-----8-----8---8--x--x--x--x--x--x--x--x-x-x-x-x-x-x-x-x-||6-6---6-6---6---6-6---6-6---6----9--9--9--9--8--8--8--8-6-6-6-6-6-6-6-6-||------------------------------------------------------------------------||_ _ _ _ _ _ _ _ _ _ |
Pre-Chorus (I still don't know the lead)
|----------------------------------------------------------------||----------------------------------------------------------------||----6-----6---6-----6-----6---6-----8-----8---8-----8-----8---8-||----------------------------------------------------------------||4-4---4-4---4---4-4---4-4---4---6-6---6-6---6---6-6---6-6---6---||----------------------------------------------------------------||_ _ _ _ _ _ _ _ _ _ _ _ _ _ _ _ _ _ _ _ |
|----------------------------------------------------------------||----------------------------------------------------------------||----------------------------------------------------------------||----------------------------------------------------------------||4-4-4-4-4-4-4-4-4-4-4-4-4-4-4-4-6-6-6-6-6-6-6-6-6-6-6-6-6-6-6-6-||2-2-2-2-2-2-2-2-2-2-2-2-2-2-2-2-4-4-4-4-4-4-4-4-4-4-4-4-4-4-4-4-|
Chorus
|----------------------------------------------------------------||----------------------------------------------------------------||----------------------------------------------------------------|-_|8-8-8-8-8-8-8-8-4-4-4-4-4-4-4-4---------------------------------| _-X2|6-6-6-6-6-6-6-6-2-2-2-2-2-2-2-2-4-4-4-4-4-4-4-4-6-6-6-6-6-6-6-6-|-|--------------------------------2-2-2-2-2-2-2-2-4-4-4-4-4-4-4-4-|
|------------------------------------------------------------------------||------------------------------------------------------------------------||------------------------------------------------------------------------||8-8-8-8-8-8-8-8-11-11-11-11-11-11-11-11---------------------------------||6-6-6-6-6-6-6-6--9--9--9--9--9--9--9--9-4-4-4-4-4-4-4-4-6-6-6-6-6-6-6-6-||----------------------------------------2-2-2-2-2-2-2-2-4-4-4-4-4-4-4-4-|
|----------------------------------------------------------------||----------------------------------------------------------------||----------------------------------------------------------------||8-8-8-8-8-8-8-8-4-4-4-4-4-4-4-4---------------------------------| |6-6-6-6-6-6-6-6-2-2-2-2-2-2-2-2-4-4-4-4-4-4-4-4-6-6-6-6-6-6-6-6-||--------------------------------2-2-2-2-2-2-2-2-4-4-4-4-4-4-4-4-|
|------------------------------------------------------------------------||------------------------------------------------------------------------||------------------------------------------------------------------------|-_|8-8-8-8-8-8-8-8-11-11-11-11-11-11-11-11---------------------------------| _-X2|6-6-6-6-6-6-6-6--9--9--9--9--9--9--9--9-4-4-4-4-4-4-4-4-6-6-6-6-6-6-6-6-|-|----------------------------------------2-2-2-2-2-2-2-2-4-4-4-4-4-4-4-4-|
|---------------------------------------||------------------7--------------------|<-_Syn goes crazy with a Whammy-Bar on these harmonics|11----------------5--------------------|<-|11-------------------------------------||-9-------------------------------------||---------------------------------------|| * |
Solo/Outro (play Chorus during this)
|------------------------------------------------------------------14-----------------------||--------14---12-11---9----9----9h11---------------14---14b15r14--------11-14-11-14-14b15---||11---------------------11---11------11-11-11-----------------------------------------------||-----11----------------------------------------11------------------------------------------||-------------------------------------------------------------------------------------------||-------------------------------------------------------------------------------------------|
I'm not 100% sure about this part but it looks and sounds that way in the video. |11----------------------------------------------------14----14---------------------------------||---14-12-11-9----9----9h11----14----14----14----14-14----14----14141111141411111414111114141111||--------------11---11------11----11----11----11------------------------------------------------||-----------------------------------------------------------------------------------------------||-----------------------------------------------------------------------------------------------||-----------------------------------------------------------------------------------------------| ^14's and 11's^
|---------13------16b17---13-14-13----------------11\----------||14---p11------14------------------14----14-11-14--------------||-------------------------------------11-----------------------||--------------------------------------------------------------||--------------------------------------------------------------||--------------------------------------------------------------|
Legend: Muted Note-x Palm Mute-_ Hammer On-h Pull Off-p Bend-b Release Bend-r That's it, I hope you all enjoy the tab :)
Tap to rate this tab
 
# A B C D E F G H I J K L M N O P Q R S T U V W X Y Z