Gorerotted - To Catch A Killer tab

Band: Gorerotted
Album: Only Tools And Corpses
Song: To Catch A Killer
Record Label: Metal Blade
Tuning: D G C F A D

------------------|------------------|------------------|-------8-7--------|-2-8-7-6-5-8-7-3--|-0-6-5-----6-5-1--|X4Let Notes Ring
------------------|------------------|------------------|-------1-0--------|---1-0-----1-0----|-0-------------1--|X2trem............
------------------|------------------|------------------|-------8-7--------|-2-8-7-6-5-8-7-3--|-0-6-5-----6-5-1--|X4Let Notes Ring
------------------------------------------------------------------|------------------------------------------------------------------|------------------------------------------------------------------|------------------------------------------------------------------|-2h3----3h4-------------------------2h3----3h4-22-2-2-2-2-2-2-2-2-|----1h2-----00--*can't catch me*-00----1h2-----00-0-0-0-0-0-0-0-0-| pm .. pm.. pm.. . . . . . . . .
------------------------------------------------------------|------------------------------------------------------------|------------------------------------------------------------|------------------------------------------------------------|-2h3----3h4----2h3----3h4----2h3----3h4----2-2-2-2-2-2-2-2--|----1h2-----00----1h2-----00-----1h3----00-0-0-0-0-0-0-0-0--|X3
pm.. pm.. pm.. . . . . . . . .------------------|------------------|------------------|------------------|-----3-------3-6--|-0-5---2-0-5------|X4trem.............
------------------------------------------------------------|------------------------------------------------------------|------------------------------------------------------------|------------------------------------------------------------|-2h3----3h4----2h3----3h4----2h3----3h4----2-2-2-2-2-2-2-2--|----1h2-----00----1h2-----00-----1h3----00-0-0-0-0-0-0-0-0--|X2 pm.. pm.. pm.. . . . . . . . .
------------------|------------------|------------------|------------------|-----3-------3-6--|-0-5---2-0-5------|X4trem.............
------------------|------------------|------------------|------------------|-------5-------7--|-6-0-6---6-0-6----|X3trem.............
------------------|------------------|------------------|-------7-------9--|-8---8-5-8---8-7--|-6-0-6---6-0-6----|pm . . . . .
------------------|------------------|------------------|------------------|-------5-------7--|-6-0-6---6-0-6----|X3trem.............
------------------|------------------|------------------|-------7-------9--|-8---8-5-8---8-7--|-6-0-6---6-0-6----|pm . . . . .
------------------|------------------|------------------|-----5-------5-8--|-2-7-3-4-2-7-3-6--|-0-5---2-0-5-3-6--|X3
----------------|----------------|----------------|-----5-------5--|-2-7-3-4-2-7-3--|-0-5---2-0-5-3--|
------------------|------------------|------------------|-------8-7--------|-2-8-7-6-5-8-7-3--|-0-6-5-----6-5-1--|X4Let Notes Ring
------------------|------------------|------------------|-------1-0--------|---1-0-----1-0----|-0-------------1--|X2trem............
------------------|------------------|------------------|-------8-7--------|-2-8-7-6-5-8-7-3--|-0-6-5-----6-5-1--|X2
--------------------------------------|--------------------------------------|--------------------------------------|--------------------------------------|-7*trill*8---------6*trill*7----------|-----------0-1-4-3-----------0-1-4-3--| trem... .......
--------------------------------------|--------------------------------------| (6)=guitar 2--------------------------------------|------------------(6)-----(7)---------|-7*trill*8---------6*trill*7-2-3-6-5--|-----------2-3-6-5-----------0-1-4-3--| trem... pm. . .
--------------------------------------|--------------------------------------|--------------------------------------|(7)-----(8)-------(6)-----(7)---------|-7*trill*8---------6*trill*7----------|-----------0-1-4-3-----------0-1-4-3--| trem... .......
--------------------------------------|--------------------------------------| (6)=guitar 2--------------------------------------|------------------(6)-----(7)---------|-7*trill*8---------6*trill*7-2-3-6-5--|-----------2-3-6-5-----------0-1-4-3--| trem... pm. . .
------------------------------------------------------------------|------------------------------------------------------------------|------------------------------------------------------------------|------------------------------------------------------------------|---------4h7---------3h6-----2h5---------2h5---------2h5-----2h5--|-0-3-6-3-----0-2-5-2-----1-4-----0-1-4-1-----0-1-4-1-----1-4------|X4pm . . . . . . . . . . . . . . . . . . .
--------------------------------------|--------------------------------------|--------------------------------------|(7)-----(8)-------(6)-----(7)---------|-7*trill*8---------6*trill*7----------|-----------0-1-4-3-----------0-1-4-3--| trem... .......
--------------------------------------|--------------------------------------|--------------------------------------|------------------(6)-----(7)---------|-7*trill*8---------6*trill*7-2-3-6-5--|-----------2-3-6-5-----------0-1-4-3--| trem... pm. . .
--------------------------------------|--------------------------------------|--------------------------------------|(7)-----(8)-------(6)-----(7)---------|-7*trill*8---------6*trill*7----------|-----------0-1-4-3-----------0-1-4-3--| trem... .......
--------------------------------------|--------------------------------------|--------------------------------------|------------------(6)-----(7)---------|-7*trill*8---------6*trill*7-2-3-6-5--|-----------2-3-6-5-----------0-1-4-3--| trem... pm. . .
------------------------------------------------------------------|------------------------------------------------------------------|------------------------------------------------------------------|------------------------------------------------------------------|---------4h7---------3h6-----2h5---------2h5---------2h5-----2h5--|-0-3-6-3-----0-2-5-2-----1-4-----0-1-4-1-----0-1-4-1-----1-4------|X4
Tap to rate this tab
 
# A B C D E F G H I J K L M N O P Q R S T U V W X Y Z