Nostalgia tab with lyrics by Gorguts - Easy chords and tabs for guitar

Gorguts – Nostalgia tab

.  - palm mute           /  - slide up to
\  - slide down to       ~  - vibrato
h  - hammer on           b  - Bend
p  - pull off            Suffixes for bend
t  - tap                 f  - full bend    h - half bend
ph - pinched harmonic    q  - quarter bend t - tap bend
*  - see comment         ^  - Hold bend    r release bend
x  - Stuccatto           ~  - vibrato bend
,  - slight palm mute    () - ghost note, sustained note
"  - tremolo note        <> - Trill

Tunning C F A# D# G C [Low to High]


|Intro| *See Notes*

||-----------|--0----------------|ph12w/bar-----------|||-----------|--0----------------|--------------------|||-----------|--0----------------|--------------------|||-----------|--0----------------|--------------------|||--2--2--3--|--0----------------|--------------------|||--0--0--1--|--0----------------|--------------------|
ph19w/bar---------------------|[ph21------20----19w/bar]----------||-----------------ph19w/bar----|-----------------------------------||------------------------------|-----------------------------------||------------------------------|--------------------------------4--||------------------------------|-----------------------------3-----||------------------------------|--------------------------2--------||
|Verse| 2x||-------------------------------------|-------------------------------------|||-------------------------------------|-------------------------------------|||*-----------------------------------*|-------------------------------------|||*--------------------------------4--*|--4----------------------------------|||------------------------------3------|------------------------------3/2----|||---1r---1--1----1--1----1--2---------|--1r---1--1----1--1----1--1/2-----0--|
---------------------------------------|---------------------------------------|---------------------------------------|--2--3----3--5-------------------------|--------------------------------3/2----|-----2-------4--4--5--6--0--1/2-----0--|
------------------------------------------------||------------------------------------------------||------------------------------------------------||--2--3----3--5-------------------------------4--||--------------------------------3/2-------3-----||-----2-------4--4--5--6--0--1/2-----0--2--------||
|Verse II| 2x||-------------------------------------|-------------------------------------|||-------------------------------------|-------------------------------------|||*-----------------------------------*|-------------------------------------|||*--------------------------------4--*|--4----------------------------------|||------------------------------3------|------------------------------3/2----|||---1r---1--1----1--1----1--2---------|--1r---1--1----1--1----1--1/2-----0--|
|-----------------------------------------|||-----------------------------------------|||*---------------------------------------*|||*--2--3----3--5-------------------------*|||---------------------------------3/2-----|||------2-------4--4--5--6--0--1/2-----0---||
|Chorus| 3x||------------------------------------------------------------------|||------------------------------------------------------------------|||*----------------------------------------------------------------*|||*--11-----11/10-10-----14--14-----13--11h13h11h13/6-----6/-4/-7--*|||-------0------------0----------0---------------------0------------|||------------------------------------------------------------------|
[Clean Tone] 3x------------------------|----------------------------|------------------------|----------------------------|*-----------------------|---------------------------*|*--11-----11/10-10/-14--|--13/-11h13h11h13/7--5--8--*|-------0----------------|------------------0--0--0---|------------------------|----------------------------|
[Heavy tone] 3x------------------------------------------------------------------|------------------------------------------------------------------|*----------------------------------------------------------------*|*--11-----11/10-10-----14--14-----13--11h13h11h13/6-----6/-4/-7--*|-------0------------0----------0---------------------0------------|------------------------------------------------------------------|
[Clean Tone] 3x------------------------|----------------------------||------------------------|----------------------------||*-----------------------|---------------------------*||*--11-----11/10-10/-14--|--13/-11h13h11h13/7--5--8--*||-------0----------------|------------------0--0--0---||------------------------|----------------------------||
|Interlude|
||-----------------|||-----------------|||*----------------|||*--8-------------|||---6----x--x--x--|||---5----x--x--x--|
----------------|---------------------|----------------|-----------------|----------------|---------------------|----------------|-----------------|----------------|---------------------|----------------|-----------------|--8-------------|--8----8-------------|----------8-----|--------5--------|--6----x--x--x--|--5----5-------------|--5----------5--|-----6-----6-----|--5----x--x--x--|--6----6----x--x--x--|--6----6--------|--6-----------8--|
---------------------|---------------------|--------||--0------0----|---||---------------------|---------------------|--------||--0------0----|---||---------------------|---------------------|-------*||--0------0----|---||--4----3----3--------|--2----1----1--------|--1----*||--1------0----|---||--5----4-------4-----|--3----2-------2-----|--2-----||--2------0----|---||--7----6----------6--|--5----4----------4--|--4-----||--4------0----|---||
|Bridge|
|----------------------------|---------------------------||----------------------------|---------------------------||*---------------------------|---------------------------||*---------------------------|---------------------------||----------------------------|---------------------------||---3---0-4--2----2--3-0/2/1-|--3---0-4--2----2--3-0/2/1-|
|---------------------------|---------------------------||---------------------------|---------------------------||---------------------------|---------------------------||------4/6/-4---------------|---------------------------||---------------------------|---------------------------||--3-------------2--3-0/2/1-|--3---0-4--2----2--3-0/2/1-|
|---------------------------|---------------------------||---------------------------|---------------------------||---------------------------|---------------------------||------4/6/-4---------------|------4/6/-4---------------||---------------------------|---------------------------||--3-------------2--3-0/2/1-|--3-------------2--3-0/2/1-|
|---------------------------|----------------------------||-----------||---------------------------|----------------------------||-----------||---------------------------|---------------------------*||-----------||---------------------------|---------------------------*||-----------||---------------------------|----------------------------||-----------||--3---0-4--2----2--3-0/2/1-|--3---0-4--2----2--3-0/2/1--||--3---0-4--|
|Verse III| 2x|-------------------------------------||-------------------------------------||-------------------------------------||-------------------------------------||*-----------------------------------*||-------------------------------------||*--------------------------------4--*||--4----------------------------------||------------------------------3------||------------------------------3/2----||---1r---1--1----1--1----1--2---------||--1r---1--1----1--1----1--1/2-----0--|
|-----------------------------------------|||-----------------------------------------|||*---------------------------------------*|||*--2--3----3--5-------------------------*|||---------------------------------3/2-----|||------2-------4--4--5--6--0--1/2-----0---||
|Chorus| 3x||------------------------------------------------------------------|||------------------------------------------------------------------|||*----------------------------------------------------------------*|||*--11-----11/10-10-----14--14-----13--11h13h11h13/6-----6/-4/-7--*|||-------0------------0----------0---------------------0------------|||------------------------------------------------------------------|
[Clean Tone] 3x------------------------|----------------------------|------------------------|----------------------------|*-----------------------|---------------------------*|*--11-----11/10-10/-14--|--13/-11h13h11h13/7--5--8--*|-------0----------------|------------------0--0--0---|------------------------|----------------------------|
[Heavy tone] 3x------------------------------------------------------------------|------------------------------------------------------------------|*----------------------------------------------------------------*|*--11-----11/10-10-----14--14-----13--11h13h11h13/6-----6/-4/-7--*|-------0------------0----------0---------------------0------------|------------------------------------------------------------------|
[Clean Tone] 3x------------------------|----------------------------||------------------------|----------------------------||*-----------------------|---------------------------*||*--11-----11/10-10/-14--|--13/-11h13h11h13/7--5--8--*||-------0----------------|------------------0--0--0---||------------------------|----------------------------||
|Interlude/Outro|
||-----------------|||-----------------|||*----------------|||*--8-------------|||---6----x--x--x--|||---5----x--x--x--|
|----------------|--------------------|--------------|-----------------||----------------|--------------------|--------------|-----------------||----------------|--------------------|--------------|-----------------||--8-------------|--8---8-------------|--------8-----|--------5--------||--6----x--x--x--|--5---5-------------|--5--------5--|-----6-----6-----||--5----x--x--x--|--6---6----x--x--x--|--6--6--------|--6-----------8--|
|---------------------|---------------------|--------||---------------------|---------------------|--------||---------------------|---------------------|-------*||--4----3----3--------|--2----1----1--------|--1----*||--5----4-------4-----|--3----2-------2-----|--2-----||--7----6----------6--|--5----4----------4--|--4-----|
|-------------||-------------|||-------------||-------------|||-------------||-------------|||--5----x-x-x-||--5----------|||--6----x-x-x-||--6----------|||--8----x-x-x-||--8----------||
The End! :) *Notes* [i] Intro is just a load of random Rick Rozz style screaming on the trem bar, they probably never play it the same way twice so don't bother trying for a perfect imitation! What I've tabbed is just examples of what you could do...
Please rate this tab:
x1.0