Govt Mule - In My Life tab

Gov’t Mule - In My Life

by Govt Mule
transcribed by Seth Brewster and Peter Riedman

**Open G Tuning - Low to High (DGDGBD)**
***There is a bunch of slide fills in this song you can just play around with***

(h)= hammer on/off
() around a # = harmonics
/ = slide

intro|----------------------------------------------------0-0----(12)-||----------------------------------------------------1-0----(12)-||----------------------------------------------------0-0----(12)-||--0--2--(h)--4--5--4--2--(h)--0---------------------2-0----(12)-||------------------------------5-(h)-4-(h)-2-(h)-0---0-0---------||----------------------------------------------------0-0---------|
|----------------------------------------------------0-0--------||----------------------------------------------------1-0--------||----------------------------------------------------0-0--------||--0--2--(h)--4--5--4--2--(h)--0---------------------2-0-----/~5||------------------------------5-(h)-4-(h)-2-(h)-0---0-0--------||----------------------------------------------------0-0--------|
|----------------------------------------------------0-0----------||----------------------------------------------------0-1----------||----------------------------------------------------0-0-------/~7||--0--2--(h)--4--5--4--2--(h)--0---------------------0-2-------/~7||------------------------------5-(h)-4-(h)-2-(h)-0---0-0----------||----------------------------------------------------0-0----------|
|----------------------------------------------------0-0--||----------------------------------------------------0-1--||----------------------------------------------------0-0--||--0--2--(h)--4--5--4--2--(h)--0---------------------0-2--||------------------------------5-(h)-4-(h)-2-(h)-0---0-0--||----------------------------------------------------0-0--|
(verse) I can't save you
|--0--------0-------||----0--------0-----||------0--------0---||-------------------||-------------------||-------------------|
|----------------------------------------------------0-0--||----------------------------------------------------1-0--||----------------------------------------------------0-0--||--0--2--(h)--4--5--4--2--(h)--0---------------------2-0--||------------------------------5-(h)-4-(h)-2-(h)-0---0-0--||----------------------------------------------------0-0--|
but I can talk you down
|--0--------0-------||----0--------0-----||------0--------0---||-------------------||-------------------||-------------------|
|----------------------------------------------------0-0--||----------------------------------------------------1-0--||----------------------------------------------------0-0--||--0--2--(h)--4--5--4--2--(h)--0---------------------2-0--||------------------------------5-(h)-4-(h)-2-(h)-0---0-0--||----------------------------------------------------0-0--|
I will hold you
|--0--------0-------||----0--------0-----||------0--------0---||-------------------||-------------------||-------------------|
|----------------------------------------------------0-0--||----------------------------------------------------1-0--||----------------------------------------------------0-0--||--0--2--(h)--4--5--4--2--(h)--0---------------------2-0--||------------------------------5-(h)-4-(h)-2-(h)-0---0-0--||----------------------------------------------------0-0--|
but I won't watch you drown
|--0--------0-------||----0--------0-----||------0--------0---||-------------------||-------------------||-------------------|
|-----------------------------------------------------||-----------------------------------------------------||-----------------------------------------------------||--0--2--(h)--4--5--4--2--(h)--0----------------------||------------------------------5-(h)-4-(h)-2-(h)-0----||-----------------------------------------------------|
(chorus) In my life
|---0------------------||---3--------5-(h)-3---||---0----------------5-||---4------------------||----------------------||----------------------|
Things have a way of growing downward
|--0-----------0--------------------------------------------||--3--3--------3--------------------------------------------||--5--5--------0--------------------------------------------||--5--5--------4------------------------(5-/-4-0---5-/-4-0)-||-----------------------------------------------------------||-----------------------------------------------------------|
And I don't know if I can watch myself be a coward
|------------0--------------0-------------------0---||------------3--------------1-------------------3---||------------0--------------0-------------------0---||------------4--------------2-------------------4---||---------------------------------------------------||---------------------------------------------------|
Again
|-----0---||-----0---||-----0---||-----2---||-----5---||-----0---|
|--0--------0-------||----0--------0-----||------0--------0---||-------------------||-------------------||-------------------|
|----------------------------------------------------0-0--||----------------------------------------------------1-0--||----------------------------------------------------0-0--||--0--2--(h)--4--5--4--2--(h)--0---------------------2-0--||------------------------------5-(h)-4-(h)-2-(h)-0---0-0--||----------------------------------------------------0-0--|
(verse) I don't know you
|--0--------0-------||----0--------0-----||------0--------0---||-------------------||-------------------||-------------------|
|----------------------------------------------------0-0--||----------------------------------------------------1-0--||----------------------------------------------------0-0--||--0--2--(h)--4--5--4--2--(h)--0---------------------2-0--||------------------------------5-(h)-4-(h)-2-(h)-0---0-0--||----------------------------------------------------0-0--|
like I thought I did
|--0--------0-------||----0--------0-----||------0--------0---||-------------------||-------------------||-------------------|
|----------------------------------------------------0-0--||----------------------------------------------------1-0--||----------------------------------------------------0-0--||--0--2--(h)--4--5--4--2--(h)--0---------------------2-0--||------------------------------5-(h)-4-(h)-2-(h)-0---0-0--||----------------------------------------------------0-0--|
But I will show you
|--0--------0-------||----0--------0-----||------0--------0---||-------------------||-------------------||-------------------|
|----------------------------------------------------0-0--||----------------------------------------------------1-0--||----------------------------------------------------0-0--||--0--2--(h)--4--5--4--2--(h)--0---------------------2-0--||------------------------------5-(h)-4-(h)-2-(h)-0---0-0--||----------------------------------------------------0-0--|
things that I kept hid
|--0--------0-------||----0--------0-----||------0--------0---||-------------------||-------------------||-------------------|
(Chorus) In my life I've always been the one that had to ruin things So I don't know is some dark angel pulling on my heart strings Again solo(mainly with slide)
|---------------------------0------0-----------------------------0-||-------------------------0------0-----------------0-(h)-1-(h)-3---||----5-(h)-6-(h)-5------0------0-----------------0-----------------||------------------7------------------0-(h)-3--0-------------------||------------------------------------------------------------------||------------------------------------------------------------------|
|--------/12-------------------------------------------------------||--------/12---------------------11-/-12--12------12-/-11----------||-----------------0--3--3-/-5------------------------------/12-/12-||------------------------------------------------------------------||--/7--------------------------------------------------------------||------------------------------------------------------------------|
|-------------------------------------------------||-------------------------------------------------||--4-/-5--4-/-5---4-/-5-/-2-----/5---/7-----------||-------------------------------------------------||-------------------------------------------------||-------------------------------------------------|
|------12-14-/15-/-14-/------~12-----------------------------||-/12---------------------/12-------6-6-/-8--8---8-/-~10-----||------------------------------------------------------------||------------------------------------------------------------||------------------------------------------------------------||------------------------------------------------------------|
|--15-/-14--14-/-12--12-/-10--10-/-8---------------------12--||--------------------------------------12-/-10--10-/-12------||------------------------------------------------------------||------------------------------------------------------------||------------------------------------------------------------||------------------------------------------------------------|
(verse) People change I don't know what for Strangers walking in and out my door Something's got to change The past just hangs here to remind me That one of these mornings I'll reach for you and find me (verse) I have told you I won't watch you drown I can't save you but I will be around
|--------------------0-----------------------------||--------------/5----0-------/--12-----------------||--------------/5----0-------/--12-----------------||--------------/5----0-------/--12-----------------||--------------------0-----------------------------||--------------------0-----------------------------|
Tap to rate this tab
 
# A B C D E F G H I J K L M N O P Q R S T U V W X Y Z