Guns N Roses - Sympathy For The Devil tab

This ong is complete!!! I saw the version thats aready on ultimate-guitar but it was
the solo.An d the solo is different that the original Stones version. So here it is,
FOR THE DEVIL.
Guns N' Roses - Sympathy For The Devil

Tuned down half a step
After all the shenanigans.

Intro -
  E     D     A

|--------------------||-9-----7------------||-9-----7-----7------||-9-----7-----7------||-7-----5-----7--4-5-||-------------5------|
Slash's Bits -
|------------------||-------10--9------||--------9--9------||------------------||--9h11------------||------------------|
|--------------------------------------||-9--9--9-9-9-10-9~---7--7--7-7-7-8-7--||-9--9--9-9-9--9-9~---7--7--7-7-7-7-7--||-9--9--9-------------7--7--7----------||-7-------------------5----------------||--------------------------------------|... then hit A
Play around with those notes above until 1:05
|--------------------------------------||--8~----9~--8~----10--9--9---------9--||--8~----9~--8~----10--9--9---9-----9--||--8~----9~--8~----10--9--9-x-9-x-x-9--||----------------------7--7-x-7-x-x-7--||--------------------------------------|
|-----------------------------------------------------||----------------------------8~---9~--8~---10---9-----||-7-7-8-9-13-13-12-11--------8~---9~--8~---10---9-----||---------------------14---8~---9~--8~---10---9-------||-----------------------------------------------7-----||-----------------------------------------------------|
Pause... Then go back into the main chords More Slash Bits -
2:17|-----0------------------------------------||-------0-3br-0----0---------3p0-----------||--2b-----------2b---r2p0-2b-----r2p0------||-------------------------------------2~---||------------------------------------------||------------------------------------------|
2:25|--10-9-7-------------------------------||---------8~----8---10p8---8-8/10-8~----||-------------9---9------9--------------||---------------------------------------||---------------------------------------||---------------------------------------|
3:06 Solo
|--12-----------------------12----------------------||-----15-12--------------------15-12----------------||-----------14-14br12----------------14-14br12------||---------------------14~----------------------14~~-||---------------------------------------------------||---------------------------------------------------|
|-12------------------------------------------------||----15-12----15-hold-bend--------12~~----------8---||----------14-14b------12---------12~~------7-9-----||-------------------------14~-----------------------||---------------------------------------------------||---------------------------------------------------|
|--------------------------12~~----17b-17b-17~---12-12h15-12~--15b||-10p8-------12~~--8--8h10----------------------------------------||------9~----12~~-------------------------------------------------||-----------------------------------------------------------------||-----------------------------------------------------------------||-----------------------------------------------------------------|
|--rb17-15--17~---//18-17-15------17br15-17p15-----15-17p15--17b--||---------17-----------------17~---------------17~----------------||-----------------------------------------------------------------||-----------------------------------------------------------------||-----------------------------------------------------------------||-----------------------------------------------------------------|
|-----15h17-17b----15h17-17b-17~-15-17-15~-------||--17-----------17--------------------------17~--||------------------------------------------------||------------------------------------------------||------------------------------------------------||------------------------------------------------|
3:31|-12--12---12--12---12--12--12--15p12--17b--17~-17b-17~-15-17-15b----||-----15b------15b------15b----------------------------------------17||--------------------------------------------------------------------||--------------------------------------------------------------------||--------------------------------------------------------------------||--------------------------------------------------------------------|
|----------17p15--------------||-15h17p15-------17p15h17~----||-----------------------------||-----------------------------||-----------------------------||-----------------------------|
Right at the end -
|-------------------------------------------------------||--10-8-10-h11p10p8-8/10--83-----5----------------------||------------------------------2/4----2br0---2/3-2~-----||------------------------------------------2------------||-------------------------------------------------------||-------------------------------------------------------|
|-------------------------------||-------------------------------||-------------------2--1--------||-2p0---0-----------2--2--------||-----2---2p0-------2--2--------||-------------3br-0-------------|
At the end its pretty much the same solo, just use the same key... which i dont know what coz im musically challenged. I guess its E or sumthing..
Tap to rate this tab
 
# A B C D E F G H I J K L M N O P Q R S T U V W X Y Z