Harrison George - Cheer Down tab

                     Cheer Down - George Harrison - Best of Dark Horse

Tabbed by:Alex Mondragon(AMDrag)
Email:almondragon@sbcglobal.net
Tuning:Standard

Email any corrections to almondragon@sbcglobal.net.

IntroE||-----------------------------------------------------------------------------------------B||--5/-7----5/---7----3/---5----3--------------3----5/---7----5/---7----5----7---5--3------G||-----------------------------------3----2--------------------------------------------3/2-D||-----------------------------------------------------------------------------------------A||-----------------------------------------------------------------------------------------E||-----------------------------------------------------------------------------------------
D I can see by your grin Gm That you're trembling within D Gm A D It's all over town, cheer down D And the smile on your face Gm Is sometimes out of place D Gm A D Don't mind, no frowns, cheer down. Gm D If your hair should fall Gm D If your shares should crash Gm D A You'll get by even without getting a rash D There's no tears to be shed Gm I'm gonna love you instead D Gm A D I want you around, cheer down.
1st soloE||----------------------|----------------------|-------------------------|B||-------3/---7~---5/---|--3---------3/---5----|--3/---15/---13/---11/---|G||--2-------------------|-------2--------------|-------------------------|D||----------------------|----------------------|-------------------------|A||----------------------|----------------------|-------------------------|E||----------------------|----------------------|-------------------------|
--------------------------|-----------------------|-----------------12b---||--13/---11~---11/---10----|--10/---8/---7/---5----|--7/---8/---7----------||--------------------------|-----------------------|-----------------------||--------------------------|-----------------------|-----------------------||--------------------------|-----------------------|-----------------------||--------------------------|-----------------------|-----------------------||
Gm D When your teeth drop out Gm D A You'll get by even without taking a bite D If your dog should be dead C Gm I'm gonna love you instead D Gm A D The world loves a clown, cheer down. D Gm A D I want you around, cheer down Final Solo(D and Gm)
E||----------------------|----------------------|--------10----12/---14~---|B||--5/---7~---5/---7----|--3/---5/---3---------|--10----------------------|G||----------------------|-----------------3~---|--------------------------|D||----------------------|----------------------|--------------------------|A||----------------------|----------------------|--------------------------|E||----------------------|----------------------|--------------------------|
----------------------|--------10----12/---14/---|--10----12~---10----------|--10--------10~-------|--10----------------------|--------------------11----|----------------------|--------------------------|--------------------------|----------------------|--------------------------|--------------------------|----------------------|--------------------------|--------------------------|----------------------|--------------------------|--------------------------|
--------10----12----12b---|--12/---14~---14----15----|--10----------------------|--------------------------|--------------------------|--------------------------|--------------------------|--------------------------|--------------------------|--------------------------|--------------------------|--------------------------|
--15/---17/---15----14~---|--10/---12----10----------|--------10----12b-------|--------------------------|--------------------11~---|--10--------------------|--------------------------|--------------------------|------------------------|--------------------------|--------------------------|------------------------|--------------------------|--------------------------|------------------------|--------------------------|--------------------------|------------------------|
--12/-------14--------|--14/-------10--------|--10b-----------------|----------------------|----------------------|------------11--------|----------------------|----------------------|----------------------|----------------------|----------------------|----------------------|----------------------|----------------------|----------------------|----------------------|----------------------|----------------------|
--14/-------17--------|--15b-------14--------|--12/-------10/-------|----------------------|----------------------|----------------------|----------------------|----------------------|----------------------|----------------------|----------------------|----------------------|----------------------|----------------------|----------------------|----------------------|----------------------|----------------------|
--12/-------14--------|--12--------10--------|--------------------|----------------------|----------------------|--11~---------------|----------------------|----------------------|--------------------|----------------------|----------------------|--------------------|----------------------|----------------------|--------------------|----------------------|----------------------|--------------------|
--------------------|--------------------|--------------------|-----------3--------|--5/-------7--------|--------------------|--2-----------------|--------------------|--2--------2~-------|--------------------|--------------------|--------------------|--------------------|--------------------|--------------------|--------------------|--------------------|--------------------|
--------------------|---------------------|--------------------|--7--------8--------|--10~-------8--------|--7--------3/-------|--------------------|---------------------|--------------------|--------------------|---------------------|--------------------|--------------------|---------------------|--------------------|--------------------|---------------------|--------------------|
--------------------|--------------------|---------------------|--5--------3--------|--------------------|--3/-------15/-------|--------------------|--3--------2~-------|---------------------|--------------------|--------------------|---------------------|--------------------|--------------------|---------------------|--------------------|--------------------|---------------------|
--------------------|--------------------|----------------------|--10~---------------|--7--------8--------|--10/-------13--------|--------------------|--------------------|----------------------|--------------------|--------------------|----------------------|--------------------|--------------------|----------------------|--------------------|--------------------|----------------------|
----------------------|---------------------|-------------------|--11--------10--------|--11/-------8--------|--8~---------------|----------------------|---------------------|-------------------|----------------------|---------------------|-------------------|----------------------|---------------------|-------------------|----------------------|---------------------|-------------------|
--10/-------22/-------|--17~---------------|--17/-------20--------|----------------------|--------------------|----------------------|----------------------|--------------------|----------------------|----------------------|--------------------|----------------------|----------------------|--------------------|----------------------|----------------------|--------------------|----------------------|
--18--------17/-------|--18--------15--------|--15~---------------|----------------------|----------------------|--------------------|----------------------|----------------------|--------------------|----------------------|----------------------|--------------------|----------------------|----------------------|--------------------|----------------------|----------------------|--------------------|
------------10--------|--12/-------14--------|----------------------|--10------------------|----------------------|--10--------10~-------|----------------------|----------------------|----------------------|----------------------|----------------------|----------------------|----------------------|----------------------|----------------------|----------------------|----------------------|----------------------|
--14--------14/-------|--12--------12/-------|--10--------10/-------|----------------------|----------------------|----------------------|----------------------|----------------------|----------------------|----------------------|----------------------|----------------------|----------------------|----------------------|----------------------|----------------------|----------------------|----------------------|
--5--------6/-------|--5--------3--------|--6~---------------|--------------------|--------------------|-------------------|--------------------|--------------------|-------------------|--------------------|--------------------|-------------------|--------------------|--------------------|-------------------|--------------------|--------------------|-------------------|
--8--------10--------10--------|--8--------10--------10--------|--8--------10--------10--------|--8--------10--------10--------|-------------------------------|-------------------------------|-------------------------------|-------------------------------|-------------------------------|-------------------------------|-------------------------------|-------------------------------|
--8--------10--------10--------|--8--------10--------10--------|--8--------10--------10--------|--8--------10--------10--------|-------------------------------|-------------------------------|-------------------------------|-------------------------------|-------------------------------|-------------------------------|-------------------------------|-------------------------------|
--8--------10--------10--------|--10----------------------------|--8--------10--------10--------|--10--------11~-------10~-------|-------------------------------|--------------------------------|-------------------------------|--------------------------------|-------------------------------|--------------------------------|-------------------------------|--------------------------------|
------------10--------12/-------|--14--------12/-------14--------|--10----------------------------|--------------------------------|--------------------------------|--------------------------------|--------------------------------|--------------------------------|--------------------------------|--------------------------------|--------------------------------|--------------------------------|
-------------------------------|--------------------------------|--10--------10~-------7/-------|--10--------13--------11p-------|-------------------------------|--------------------------------|-------------------------------|--------------------------------|-------------------------------|--------------------------------|-------------------------------|--------------------------------|
Fade out --------------------------------|--------------------||--10h-------11~-------10--------|--8--------7/-------||--------------------------------|-----------7/-------||--------------------------------|--------------------||--------------------------------|--------------------||--------------------------------|--------------------||
Tap to rate this tab
 
# A B C D E F G H I J K L M N O P Q R S T U V W X Y Z