Haste The Day - White Collar tab

I didn't put all the strumming in, when I did it looked cluttered and ugly(i'm trying to
this as simple as possible for you to read), so don't depend too much on the strum
they're there to give you more of an idea of how many strums there should be. Anyway, 
is a great song and I hope you guys enjoy it. Let me know if there's any errors. Thanks.

/ = Slide ->
\ = Slide <-
bu = Bend up
bd = bend down
pm = palm mute

Intro:


|------------------------------------------------------||------------------------------------------------------||-----10/12--9/14-14\12--------------------------------||-0-0-x--x---x-x---x-x--8h10-10-10-10-10-10-10-10------||-0-0-8/10---7/12-12\10-8h10-10-10-10-10-10-10-10------||-0-0-------------------8h10-10-10-10-10-10-10-10------| pm . . . . . . .
|------------------------------------------------------||------------------------------------------------------||------------------------------------------------------||-0-8p7p0-5p0-3p0-10/12-14\12-9\7--8-8-8-8-8-8-8-8-3p0-||-0-8p7p0-5p0-3p0-x--x--x--x--x----8-8-8-8-8-8-8-8-3p0-||-0-8p7p0-5p0-3p0-8/10--12\10-7\5--8-8-8-8-8-8-8-8-3p0-|
|-------------------------------------------------------------||-------------------------------------------------------------||-------------------------------------------------------------||-10/12-9/14-14\12--8h10-10-10-10-10-10-10-10-0-8p7p0-5p0-3p0-||-x--x--x-x--x------8h10-10-10-10-10-10-10-10-0-8p7p0-5p0-3p0-||-8/10--712--12\10--8h10-10-10-10-10-10-10-10-0-8p7p0-5p0-3p0-| pm . . . . . . .
|---------------------------------------------------||---------------------------------------------------||---------------------------------------------------||-10/12-14/12-9\7-8-8-8-8-8-8-8-8-7-5-3-0-----------||-x-----x--x--x---8-8-8-8-8-8-8-8-7-5-3-0-----------||-8/10--12/10-7\5-8-8-8-8-8-8-8-8-7-5-3-0-----------|
|--------------------------------------------||--------------------------------------------||--------------------------------------------||-0-0-0-0~-0-0-0-0~-0-0-0--------------------||-0-0-0-0~-0-0-0-0~-0-0-0-3----5-------------||-0-0-0-0~-0-0-0-0~-0-0-0---3p0---5p0-3p0----|pm. . . . . . . . .
Verse: Both Guitars
|-----------------------------------------------------------||-----------------------------------------------------------||-----------------------------------------------------------||-----------------------------------------------------------||-0-0-0-0------------0-0-0-0-0-0-0-0-0-0-0--3p0---5---------||-0-0-0-0-3p0-0-3p0--0-0-0-0-0-0-0-0-0-0-0------3---5p0-3p0-|pm. . . . . . . . . . . . .
|------------------------------------------------(14)-----||---------------------------------------------------------||---------------------------------------------------------||---------------------------------------------------------||-0-0-0-0-0-----------0-0-0-0-0-0-0-0-3p0--5-3p0---5~-----||-0-0-0-0-0-3p0-0-3p0-0-0-0-0-0-0-0-0----3-------3--------|pm. . . . . . . . . . . .
|---------------------------------------------------------------------------||---------------------------------------------------------------10-10-10-10-||---------------------------------------------------------------10-10-10-10-||-0--------0--------3--------3--------5---------5----------3-3--------------||-0-3p0----0-3p0----3-5p0----3-5p0----5-5p0-3p0-5-5p0-3p0--1-1--------------||-0----3p0-0----3p0-3----5p0-3----5p0-5---------5---------------------------|
Chorus: Guitar 1:
|-------------------------------------------------------------------------||-------------------------------------------------------------------------||-------------------------------------------------------------------------||-0-----10-----0-----10-----0----10----8-----7----------------------------||-0-x16-10-X16-0-x16-10-x16-0-x8-10-x8-8-x16-7-x8-------------------------||-0-----10-----0-----10-----0----10----8-----7----------------------------|
Guitar 2: Play the power chords for Guitar 2 the same time Guitar 1 is playing the power chords.
|----------------------------------------------------------------------||----------------------------------------------------------------------||-7-7-7-7-9-9-9-9-10-10-10-10---------9-9-9-9-10-10-10-10--------------||-x-x-x-x-x-x-x-x-x--x--x--x---10-----x-x-x-x-x--x--x--x---------------| x2|-5-5-5-5-7-7-7-7-8--8--8--8---10-x8--7-7-7-7-8--8--8--8---------------||------------------------------10--------------------------------------|
|---------------------------------------------------------------------||---------------------------------------------------------------------||-7-7-7-7-9-9-9-9-10-10-10-10---------12-12-12-12-14-14-14-14---------||-x-x-x-x-x-x-x-x-x--x--x--x---10----x--x--x--x--x--x--x--x---8-------||-5-5-5-5-7-7-7-7-8--8--8--8---10-x8-10-10-10-10-12-12-12-12--8-x8----||------------------------------10-----------------------------8-------|
|-------------------------------------||-------------------------------------||-14-12-10-17-12~---------------------||-x--x--x--x--x-----------------------||-12-10-8--15-10~---------------------||-------------------------------------|
Verse 2:
|---------------------------------------------------------------||---------------------------------------------------------------||---------------------------------------------------------------||-0-----------------x-x-x-x-0-----------------------------------||-0-0-0-0-0-0-0-0-0-x-x-x-x-0-0-0-0-0-0-0-0-0-3p0--5------------||-0-0-0-0-0-0-0-0-0-x-x-x-x-0-0-0-0-0-0-0-0-0----3---5p0-3p0----|pm . . . . . . . . . . . . . . . .
|----------------------------------------------------------------------||----------------------------------------------------------------------||----------------------------------------------------------------------||------------------x-x-x-x-0-------------------------------------------||--0-0-0-0-0-0-0-0-x-x-x-x-0-0-0-0-0-0-0-0-3p0--5---------0~-----------||--0-0-0-0-0-0-0-0-x-x-x-x-0-0-0-0-0-0-0-0----3---5p0-3p0-0~------12\--|pm . . . . . . . . . . . . . . .
|------------------------------------------------------------------||------------------------------------------------------------------||------------------------------------------------------------------||-0---------------x-x-x-x-0----------------------------------------||-0-0-0-0-0-0-0-0-x-x-x-x-0-0-0-0-0-0-0-0-3p0--5-------------------||-0-0-0-0-0-0-0-0-x-x-x-x-0-0-0-0-0-0-0-0----3---5p0-3p0-----------|pm . . . . . . . . . . . . . .
|--------------------------------------------------------------------||--------------------------------------------------------------------||--------------------------------------------------------------------||-----------------x-x-x-x-0------------------------------------------||---0-0-0-0-0-0-0-x-x-x-x-0-0-0-0-0-0-0-0-0-3p0--5--3p0--5bd~--------||---0-0-0-0-0-0-0-x-x-x-x-0-0-0-0-0-0-0-0-0----3-------3-------------|pm . . . . . . . . . . . . . . .
Prechorus:
|------------------------------------------||--------------------10-10-10-10-----------||--------------------10-10-10-10-----------||-0~-3~-5~-8-8-8-8-------------------------||-0~-3~-5~-8-8-8-8-------------------------||-0~-3~-5~-8-8-8-8-------------------------|
Chorus: Guitar 1:
|-------------------------------------------------------------------------||-------------------------------------------------------------------------||-------------------------------------------------------------------------||-0-----10-----0-----10-----0----10----8-----7----------------------------||-0-x16-10-X16-0-x16-10-x16-0-x8-10-x8-8-x16-7-x8-------------------------||-0-----10-----0-----10-----0----10----8-----7----------------------------|
Guitar 2: Play the power chords for Guitar 2 the same time Guitar 1 is playing the power chords.
|------------------------------------------------------------------------||------------------------------------------------------------------------||-7-7-7-7-9-9-9-9-10-10-10-10---------9-9-9-9-10-10-10-10----------------||-x-x-x-x-x-x-x-x-x--x--x--x---10-----x-x-x-x-x--x--x--x-----------------| x2|-5-5-5-5-7-7-7-7-8--8--8--8---10-x8--7-7-7-7-8--8--8--8-----------------||------------------------------10----------------------------------------|
|---------------------------------------------------------------------||---------------------------------------------------------------------||-7-7-7-7-9-9-9-9-10-10-10-10---------12-12-12-12-14-14-14-14---------||-x-x-x-x-x-x-x-x-x--x--x--x---10----x--x--x--x--x--x--x--x---8-------||-5-5-5-5-7-7-7-7-8--8--8--8---10-x8-10-10-10-10-12-12-12-12--8-x8----||------------------------------10-----------------------------8-------|
|-------------------------------------||-------------------------------------||-14-12-10-17-12~---------------------||-x--x--x--x--x-----------------------||-12-10-8--15-10~---------------------||-------------------------------------|
Back to the intro:
|------------------------------------------------------||------------------------------------------------------||-----10/12--9/14-14\12--------------------------------||-0-0-x--x---x-x---x-x--8h10-10-10-10-10-10-10-10------||-0-0-8/10---7/12-12\10-8h10-10-10-10-10-10-10-10------||-0-0-------------------8h10-10-10-10-10-10-10-10------| pm . . . . . . .
|----------------------------------------------------------||----------------------------------------------------------||----------------------------------------------------------||-0-8p7p0-5p0-3p0-10/12-14\12-9\7--8-8-8-8-8-8-8-8-8-8-8-8-||-0-8p7p0-5p0-3p0-x-----x--x--x----8-8-8-8-8-8-8-8-8-8-8-8-||-0-8p7p0-5p0-3p0-8/10--12\10-7\5--8-8-8-8-8-8-8-8-8-8-8-8-|
Some of the solo: Guitar 1:
|----------------------------------------------------------||----------------------------------------------------------||----------------------------------------------------------||-0-----8h10-10-----0-8p7p0-5p0-3p0--0-----8-----3p0-------||-0-x16-8h10-10-x8--0-8p7p0-5p0-3p0--0-x16-8-x16-3p0-------||-0-----8h10-10-----0-8p7p0-5p0-3p0--0-----8-----3p0-------|pm .
|----------------------------------------------------------||----------------------------------------------------------||----------------------------------------------------------||-0-----8h10-10-----0-8p7p0-5p0-3p0--0-----8-----7-5-3-0---||-0-x16-8h10-10-x8--0-8p7p0-5p0-3p0--0-x16-8-x16-7-5-3-0---||-0-----8h10-10-----0-8p7p0-5p0-3p0--0-----8-----7-5-3-0---|pm .
Guitar 2: I can't figure out the arpeggios
|-14b-------------------------------------------||-----------------------------------------------||-----------------------------------------------||----------------------------------------7p0----||-------3/5-5-5-5/7-7/8-8-7-8/10b-10p8p0----8p7-||-----------------------------------------------|
|----------------------------------------------------||----------------------------------------------------||-5/7-10p7h10/12~-12/17b-17-17-17-17-17-17-----------||----------------------------------------------------||----------------------------------------------------||----------------------------------------------------|
|----------------------------------------------------||----------------------------------------------------||----------------------------------------------------||-15p14p10h14h15p14p10h14h15p14p10h14h15p14p10-------||----------------------------------------------------||----------------------------------------------------|
|----------------------------------------------------||----------------------------------------------------||----------------------------------------------------||-17p15p14h15h17p15p14h15h17p15p14h15h17p15p14-------||----------------------------------------------------||----------------------------------------------------|
|----------------------------------------------------||----------------------------------------------------||----------------------------------------------------||-15p14p10h14h15p14p10h14h15p14p10h14h15p14p10-------||----------------------------------------------------||----------------------------------------------------|
Prechorus:
|---------------------------------------------------------------------------||---------------------------------------------------------------10-10-10-10-||---------------------------------------------------------------10-10-10-10-||-0--------0--------3--------3--------5---------5----------3-3--------------||-0-3p0----0-3p0----3-5p0----3-5p0----5-5p0-3p0-5-5p0-3p0--1-1--------------||-0----3p0-0----3p0-3----5p0-3----5p0-5---------5---------------------------|
Chorus: Guitar 1:
|-------------------------------------------------------------------------||-------------------------------------------------------------------------||-------------------------------------------------------------------------||-0-----10-----0-----10-----0----10----8-----7----------------------------||-0-x16-10-X16-0-x16-10-x16-0-x8-10-x8-8-x16-7-x8-------------------------||-0-----10-----0-----10-----0----10----8-----7----------------------------|
Guitar 2: Play the power chords for Guitar 2 the same time Guitar 1 is playing the power chords.
|------------------------------------------------------------------------||------------------------------------------------------------------------||-7-7-7-7-9-9-9-9-10-10-10-10---------9-9-9-9-10-10-10-10----------------||-x-x-x-x-x-x-x-x-x--x--x--x---10-----x-x-x-x-x--x--x--x-----------------| x2|-5-5-5-5-7-7-7-7-8--8--8--8---10-x8--7-7-7-7-8--8--8--8-----------------||------------------------------10----------------------------------------|
|---------------------------------------------------------------------||---------------------------------------------------------------------||-7-7-7-7-9-9-9-9-10-10-10-10---------12-12-12-12-14-14-14-14---------||-x-x-x-x-x-x-x-x-x--x--x--x---10----x--x--x--x--x--x--x--x---8-------||-5-5-5-5-7-7-7-7-8--8--8--8---10-x8-10-10-10-10-12-12-12-12--8-x8----||------------------------------10-----------------------------8-------|
|-------------------------------------||-------------------------------------||-14-12-10-17-12~---------------------||-x--x--x--x--x-----------------------||-12-10-8--15-10~---------------------||-------------------------------------|
Interlude: Guitar 1:
|-----------------------------------------||-----------------------------------------||-----------------------------------------||-0~-10~-8~-7~----------------------------| x4|-0~-10~-8~-7~----------------------------||-0~-10~-8~-7~----------------------------|
Guitar 2:
|----------------------------------------------------||----------------------------------------------------||----------------------------------------------------||-15p14p10h14h15p14p10h14h15p14p10h14h15p14p10-------||----------------------------------------------------||----------------------------------------------------|
|----------------------------------------------------||----------------------------------------------------||----------------------------------------------------||-17p15p14h15h17p15p14h15h17p15p14h15h17p15p14-------||----------------------------------------------------||----------------------------------------------------|
|----------------------------------------------------||----------------------------------------------------||-17bu-----------------------------------------------||----------------------------------------------------||----------------------------------------------------||----------------------------------------------------|
Chorus: Guitar 1:
|-------------------------------------------------------------------------||-------------------------------------------------------------------------||-------------------------------------------------------------------------||-0-----10-----0-----10-----0----10----8-----7----------------------------||-0-x16-10-X16-0-x16-10-x16-0-x8-10-x8-8-x16-7-x8-------------------------||-0-----10-----0-----10-----0----10----8-----7----------------------------|
Guitar 2: Play the power chords for Guitar 2 the same time Guitar 1 is playing the power chords.
|------------------------------------------------------------------------||------------------------------------------------------------------------||-7-7-7-7-9-9-9-9-10-10-10-10---------9-9-9-9-10-10-10-10----------------||-x-x-x-x-x-x-x-x-x--x--x--x---10-----x-x-x-x-x--x--x--x-----------------| x2|-5-5-5-5-7-7-7-7-8--8--8--8---10-x8--7-7-7-7-8--8--8--8-----------------||------------------------------10----------------------------------------|
|---------------------------------------------------------------------||---------------------------------------------------------------------||-7-7-7-7-9-9-9-9-10-10-10-10---------12-12-12-12-14-14-14-14---------||-x-x-x-x-x-x-x-x-x--x--x--x---10----x--x--x--x--x--x--x--x---8-------||-5-5-5-5-7-7-7-7-8--8--8--8---10-x8-10-10-10-10-12-12-12-12--8-x8----||------------------------------10-----------------------------8-------|
|-------------------------------------||-------------------------------------||-14-12-10-17-12~---------------------||-x--x--x--x--x-----------------------||-12-10-8--15-10~---------------------||-------------------------------------|
End with this:
|-----------------||-----------------||-----------------||-0~--------------||-0~--------------||-0~--------------|
Tap to rate this tab
 
# A B C D E F G H I J K L M N O P Q R S T U V W X Y Z