Hatankaru - Larawan tab

Song: Larawan 
Band: hatankaru redhorse (muziklaban champion 2010)
Tabbed by: Jolet Paulo dela Cruz
From: Pamantasan ng Lungsod ng Valenzuela (PLV)

Legend:
X = mute
~ = let it ring
s = slide
h = hammer
p = pull-off

|--------------------------------------------------------||--------------------------------------------------------||--7-7-7-7-77---7-7-7-7-77---7-7-7-7-77---7-7-7-7-77-----| |--7-7-7-7-77---7-7-7-7-77---7-7-7-7-77---7-7-7-7-77-----||--------------------------------------------------------||--------------------------------------------------------|
|----------------------------||--7-7x--9-7-7-7h9-----------||--7-7x--9-7-7-7h9-----------| 4x|--7-7x--9-7-7-7h9-----------||----------------------------||----------------------------|
|---------------------------||--9~----7~----5~----4~-----||--9~----7~----5~----4~-----| |--9~----7~----5~----4~-----||---------------------------||---------------------------|
[--PM--]|-----------------------------||--9~----7~----5~--4~--444444-||--9~----7~----5~--4~--444444-| |--9~----7~----5~--4~--444444-||-----------------------------||-----------------------------|
|--------------------------------------------------------||--------------------------------------------------------||--7-7-7-7-77---7-7-7-7-77---7-7-7-7-77---7-7-7s9-9-99---| |--7-7-7-7-77---7-7-7-7-77---7-7-7-7-77---7-7-7s9-9-99---||--------------------------------------------------------||--------------------------------------------------------|
|--------------------------------------------------------||--------------------------------------------------------||--7-7-7-7-77---7-7-7-7-77---7-7-7-7-77---7-7-7-7-77-----| |--7-7-7-7-77---7-7-7-7-77---7-7-7-7-77---7-7-7-7-77-----||--------------------------------------------------------||--------------------------------------------------------|
|---------------------------||--9~----7~----5~----4~-----||--9~----7~----5~----4~-----| |--9~----7~----5~----4~-----||---------------------------||---------------------------|
[--PM--]|-----------------------------||--9~----7~----5~--4~--444444-||--9~----7~----5~--4~--444444-| |--9~----7~----5~--4~--444444-||-----------------------------||-----------------------------|
|--------------------------------------------------------||--------------------------------------------------------||--7-7-7-7-77---7-7-7-7-77---7-7-7-7-77---7-7-7s9-9-99---||--7-7-7-7-77---7-7-7-7-77---7-7-7-7-77---7-7-7s9-9-99---||--------------------------------------------------------||--------------------------------------------------------|
|--------------------------------------------------------||--------------------------------------------------------||--7-7-7-7-77---7-7-7-7-77---7-7-7-7-77---7-7-7-7-77-----| |--7-7-7-7-77---7-7-7-7-77---7-7-7-7-77---7-7-7-7-77-----||--------------------------------------------------------||--------------------------------------------------------|
|---------------------------||--9~----7~----5~----4~-----||--9~----7~----5~----4~-----| |--9~----7~----5~----4~-----||---------------------------||---------------------------|
[-----plucking-----] [--PM--]|-----------------------------||--9~----7~----5~--4~--444444-||--9~----7~----5~--4~--444444-| |--9~----7~----5~--4~--444444-||-----------------------------||-----------------------------|
|------------------------------------------||------------------------------------------||-7-9--7---7-9--7---7-9--7---7-9--7--------||-7-9--7---7-9--7---7-9--7---7-9--7--------||------------------------------------------||------------------------------------------|
|-------------------------------------------------------------||--------------------------------------------------------9~---||-7-9--7-7h9-7h9--9-7-77h97h9-9-7-77h9--9-7-5---5-4-----9~---||-7-9--7-7h9-7h9--9-7-77h97h9-9-7-77h9--9-7-5---5-4-----9~---||----------------------------------------------7-----7-5------||-------------------------------------------------------------|
[-------pluck-------]|----------------------------------||-7--5--4----9--7--5--4------------||-7--5--4----9--7--5--4------------||-7--5--4----9--7--5--4------------||----------------------------------||----------------------------------|
|----------------------------------------------||---8-10~-10s12-10-8-7h8p7---------------------||-9------------------------9~-7s9-7------------||-----------------------------------9-7-7s9~---||----------------------------------------------||----------------------------------------------|
|---------------------------------------------8-7-8-87-10s12----||-7-8-10s12-12b13b12-10----7h8---------7-8-7--------------------||------------------------9-----9~--7s9--------------------------||---------------------------------------------------------------||---------------------------------------------------------------||---------------------------------------------------------------|
|--------7-5~--------5s7-7~--------7-5~----------||--5-4-5-------5-4-5---------5-4-5------5s7-5~---||------------------------------------------------||------------------------------------------------||------------------------------------------------||------------------------------------------------|
|---------------------------------------------------------------------------||--12------------12--------------------12-----------------------------------||--14^16-12------14b16----12-14^16^14-14b-12--------12-12----12-12----12-12||-----------14~--------14------------------14--14-------14-------14---------||---------------------------------------------------------------------------||---------------------------------------------------------------------------|
|-----------------------12--------------||--------15----------------15-----------||--14^16----(ulet-ulet)-----------------||---------------------------------------||---------------------------------------||---------------------------------------|
|-------------------------------||--12----15----17----19---------||--14^1617^19-19^21-21^23------||-------------------------------||-------------------------------||-------------------------------|
|---------------------------||--12----15----17----7------||--14^1617^19-19^21-9^11---||---------------------------||---------------------------||---------------------------|
|--s12-12-11-12-14-15-15s17-15-14-151415-14---------------------------||---------------------------------------------17~-17s16-14s16-16s12~~-||---------------------------------------------------------------------||---------------------------------------------------------------------||---------------------------------------------------------------------||---------------------------------------------------------------------|
|--s12-12-11-12-14-15-15s17-15-15s19-17-15-17-15h17p15-15p14-14h15-12-12vv--||---------------------------------------------------------------------------||---------------------------------------------------------------------------||---------------------------------------------------------------------------||---------------------------------------------------------------------------||---------------------------------------------------------------------------|
|-----------------------------------------------||--8p7---(x5)-10p8----(x5)-12p10----(x5)--------||------9-----------9------------12--------------||-----------------------------------------------||-----------------------------------------------||-----------------------------------------------|
|-----------------------------------------------||--13p12------------------------------12vv------||--------14-12-------------------12h4-----------||--------------14-12-------12h14----------------||--------------------14-12----------------------||-----------------------------------------------|
|-----------------------------------------------------||--15-------------------------------------------------||--14^16-16p14-16p14----14-------------12----12h14----| x2|--------------------16----------12h14----14----------||--------------------------12h14----------------------||-----------------------------------------------------|
|-----------------------------------------------------------||--15-------------------15^^1717^^15-12----15^^------------||--14h16-16^14-12----12------------------14-----------------||-----------------14----------------------------------------||-----------------------------------------------------------||-----------------------------------------------------------|
|--10h12-08h10-0-7h8-0-5h7-0-3h5-0-(x3)-7p5-0-(x5)-----||-------------------------------------------------------||-------------------------------------------------------||-------------------------------------------------------||-------------------------------------------------------||-------------------------------------------------------|
|--------------------------------------------------------||--------------------------------------------------------||--7-7-7-7-77---7-7-7-7-77---7-7-7-7-77---7-7-7-7-77-----| |--7-7-7-7-77---7-7-7-7-77---7-7-7-7-77---7-7-7-7-77-----||--------------------------------------------------------||--------------------------------------------------------|
|--4~-------------------------||--5~-------------------------||--4~-------------------------||-----------------------------||-----------------------------||-----------------------------|
End: di ko alam mga parts ng song eh Note: kayu na bahala sa timings at kaskas. Ung iba improvise ko na. (di makuha o tinamad na) More power to opm Lalu sa hatankaru!! Mga idol. For comments and suggestion just email me: delacruzjoletpaulo@yahoo.com
Tap to rate this tab
 
# A B C D E F G H I J K L M N O P Q R S T U V W X Y Z