Heart - Baracuda tab

. = Palm Mute
<> = harmonic



Intro:

-|-----------------------------|-----------------------------|-|-----------------------------|-----------------------------|-|-----------------------------|-----------------------------|-|-----------------------------|-----------------------------|-|-2--2-2-2--2-2-2--2-2-2--2-2-|-2--2-2-2--2-2-2--2-2--4--5--|-|-0--0-0-0--0-0-0--0-0-0--0-0-|-0--0-0-0--0-0-0--0-0--2--3--| ..................................................
w/bar--|
-2 -2 V V------------------|-<5>--------(5)--(5)-----|--------<12>------|-<5>--------(5)--(5)-----|--------<12>------|-<5>--------(5)--(5)-----|------------------|-------------------------|------------------|-------------------------|------------------|--------------------12\--|
-|-----------------------------|-----------------------------|-|-----------------------------|-----------------------------|-|-----------------------------|-----------------------------|-|-----------------------------|-----------------------------|-|-2--2-2-2--2-2-2--2-2-2--2-2-|-2--2-2-2--2-2-2--2-2--4--5--|-|-0--0-0-0--0-0-0--0-0-0--0-0-|-0--0-0-0--0-0-0--0-0--2--3--| ..................................................
w/bar
-----------0-------|-----------------------------------|-----------0-------|-----------------------------------|-----------0-------|---------<12>---------------/(12)--|-----------5-------|---------<12>--------------/-(12)--|--(5)------5-------|-----------|--------------/--------|--(3)------3-------|-----------|-------------/---------| \___________/ -1/2 -2
Gtr.2-|-----------------------------|-----------------------------|-|-----------------------------|-----------------------------|-|-----------------------------|-----------------------------|-|-----------------------------|----------------------11-12--|-|-7--7-7-7--7-7-7--7-7-7--7-7-|-7--7-7-7--7-7-7--7-7--9-10--|-|-0--0-0-0--0-0-0--0-0-0--0-0-|-0--0-0-0--0-0-0--0-0--------|
| .................................................. | | | | | |Gtr.1 |-|-----------------------------------------------------------|-|-----------------------------------------------------------|-|-----------------------------------------------------------|-|-----------------------------------------------------------|-|-2--2-2-2--2-2-2--2-2-2--2-2-|-2--2-2-2--2-2-2--2-2--4--5--|-|-0--0-0-0--0-0-0--0-0-0--0-0-|-0--0-0-0--0-0-0--0-0--2--3--| ..................................................
-1 -1 -1 -1 -1
Gtr.2 V V V V V|-------------------------|--------------------------||-------------------------|--------------------------||-----------<12>----------|-(12)-(12)-(12)-(12)-(12)-||-------------------------|--------------------------||-------------------------|--------------------------||-------------------------|--------------------------|
| || ||Gtr.1 ||-----------<12>----------|--------------------------||-----------<12>----------|--------------------------||-----------<12>----------|--------------------------||-------------------------|--------------------------||-------------------------|--------------------------||-------------------------|-------------12\----------|
Gtr.2-|-----------------------------|-----------------------------|-|-----------------------------|-----------------------------|-|-----------------------------|-----------------------------|-|-9--9-9-9--9-9-9--9-9-9--9-9-|-9--9-9-9--9-9-9--9-9--11-12-|-|-7--7-7-7--7-7-7--7-7-7--7-7-|-7--7-7-7--7-7-7--7-7---9-10-|-|-0--0-0-0--0-0-0--0-0-0--0-0-|-0--0-0-0--0-0-0--0-0--------|
| .................................................. | | | | | |Gtr.1 |-|-----------------------------------------------------------|-|-----------------------------------------------------------|-|-----------------------------------------------------------|-|-----------------------------------------------------------|-|-2--2-2-2--2-2-2--2-2-2--2-2-|-2--2-2-2--2-2-2--2-2--4--5--|-|-0--0-0-0--0-0-0--0-0-0--0-0-|-0--0-0-0--0-0-0--0-0--2--3--|
1.So -1/2 -1 -1 -1 -1
Gtr.2 V V V V V |-------------------------|--------------------------||-------------------------|--------------------------||-----------<19>----<19>--|-(19)-(19)-(19)-(19)------||-------------------------|--------------------------||-------------------------|--------------------------||-------------------------|--------------------------|
| || ||Gtr.1 ||------------0------------|-(0)----------------------||------------0------------|-(0)----------------------||------------0------------|-(0)----<12>\-------/(12)-||------------5------------|-(5)----<12>-\-----/-(12)-||------------5------------|-(5)----------\---/-------||------------3------------|-(3)-----------\./--------| -1
this ain't the end...
-|-----------------------------|-----------------------------|-|-----------------------------|-----------------------------|-|-----------------------------|-----------------------------|-|-----------------------------|-----------------------------|-|-2--2-2-2--2-2-2--2-2-2--2-2-|-2--2-2-2--2-2-2--2-2-2--2-2-|-|-0--0-0-0--0-0-0--0-0-0--0-0-|-0--0-0-0--0-0-0--0-0-0--0-0-|
| ......................................................... | | | | | | |-|-----------------------------|-----------------------------|-|-----------------------------|-----------------------------|-|-----------------------------|-----------------------------|-|-----------------------------|-----------------------------|-|-2--2-2-2--2-2-2--2-2-2--2-2-|-2--2-2-2--2-2-2--2-2-2--2-2-|-|-0--0-0-0--0-0-0--0-0-0--0-0-|-0--0-0-0--0-0-0--0-0-0--0-0-| .........................................................
to - day I had to turn my heart a - way______
|-----------------------------|-----------------------------------||-----------------------------|-----------------------------------||-----------------------------|-----------------------------------||-------------5---------------|---------5--------5----------------||-2---2--2----3---------------|---------2--------0----------------||-0---0--0--------------------|--------------------------3~~~~~~~-|| ........
| |
| w/bar|-----------------------------|-----------------------------------||-----------------------------|-----------------------------------||-------------5--------(5)\---|/(5)-------------------------------||-------------5--------(5)-\--/-(5)--------------7-/-9---7-/-9----||-2---2--2----3--------(3)--\/|-(3)--------------5-/-7---5-/-7----||-0---0--0--------------------|-----------------------------------| ........ -2 1/2
- 'ry - one and tales it never
|------------------3---|--------3------------------------||------------------3---|--------3------------------------||------------------5---|--------5------------------------||--------5---------5---|--------5-----5-----5------------||-2--2-2-3-------------|--------------2-----0------------||-0--0-0---------------|--------------------------3~~~~~~|
| ...... || || || ||----------------------|---------------------------------||----------------------|---------------------------------||--------5-------------|---------------------------------||--------5-------------|--------------------------7/9----||-2--2-2-3-------------|--------------------5/7---5/7----||-0--0-0---------------|--------------------3/5----------| ......
fails__ You ly - ing
-|-----------------------------|-----------------------------|-|-----------------------------|-----------------------------|-|-----------------------------|-----------------------------|-|-----------------------------|-----------------------------|-|-2--2-2-2--2-2-2--2-2-2--2-2-|-2--2-2-2--2-2-2--2-2-2--2-2-|-|-0--0-0-0--0-0-0--0-0-0--0-0-|-0--0-0-0--0-0-0--0-0-0--0-0-|
| ......................................................... | | | | | | |-|-----------------------------|-----------------------------|-|-----------------------------|-----------------------------|-|-----------------------------|-----------------------------|-|-----------------------------|-----------------------------|-|-2--2-2-2--2-2-2--2-2-2--2-2-|-2--2-2-2--2-2-2--2-2-2--2-2-|-|-0--0-0-0--0-0-0--0-0-0--0-0-|-0--0-0-0--0-0-0--0-0-0--0-0-| .........................................................
so low in the weeds I
|-----------------------------------|----------------------------||-----------------------------------|----------------------------||-5-----------5---------------------|----------------------------||-5-----------5---------------------|----------------------------||-3-----------2---------------------|-----2-----2--2-------------||-------------------------5---------|-(5)\0-----0--0-------------|
.......... || || || ||-----------------------------------|----------------------------||-----------------------------------|----------------------------||-5-----------5---------------------|----------------------------||-5-----------5---------------------|----------------------------||-3-----------2---------------------|-----2-----2--2-------------||-------------------------5---------|-(5)\0-----0--0-------------| ..........
bet you go-na am-bush me____ You'd have me
|-----------------------------------|----------------------------||-----------------------------------|----------------------------||-----------------------------------|----------------------------||-2--------4---5---4---2------------|----------------------------||--------------------------5---3----|-----2-----2--2-------------||-----------------------------------|-----0-----0--0-------------|
| .......... || || || ||-----------------------------------|----------------------------||-----------------------------------|----------------------------||-----------------------------------|----------------------------||--------------2--------------------|----------------------------||-3--------5---2---5---3---2--------|-----2-----2--2-------------||-3--------5-------5---3-------5----|-(5)\0-----0--0-------------|
down down down down on my________
|----------------------------|-------------------------------||----------------------------|-------------------------------||----------------------------|-------------------------------||----------------------------|-------------------------------||-12-------------------12----|--(12)--------12--12--12-\-----||-10-------------------10----|--(10)--------10--10--10-\-----|
the rest is coming
Tap to rate this tab
 
# A B C D E F G H I J K L M N O P Q R S T U V W X Y Z