Helmet - Meantime tab

-----------------------------------------------------------------------------
                         MEANTIME - Helmet
-----------------------------------------------------------------------------

Note : I don't think there is a tab book for this album, so I can't
be copying out of one.

All songs except “Unsung”  1992 Page Hamilton
Unsung  1991 Page Hamilton

All Tabs by an17nin17
Email – c.norman83@ntlworld.com

Track Listing – 

1 – In The Meantime
2 – Ironhead
3 – Give It
4 – Unsung
5 – Turned Out
6 – He Feels Bad
7 – Better
8 – You Borrowed
9 – FBLA II
10- Role Modal





1 – In The Meantime

Drop D Tuning – D, A, D, G, B, E

Intro 1| 2||-----16-17^-----17-19^-|-----19-20^-----20-22^-----22^-22^-22^-|-----||-----------------------|---------------------------------------|-----||-----13-14^-----14-16^-|-----16-17^-----17-19^-----19^-19^-19^-|-----||-0-0----//--0-0----//--|-0-0----//--0-0----//--0-0-------------|-0~~-||-0-0--------0-0--------|-0-0--------0-0--------0-0-------------|-0~~-||-0-0--------0-0--------|-0-0--------0-0--------0-0-------------|-0~~-|
|----------------------------|----------------------------------------||----------------------------|----------------------------------------||----------------------------|----------------------------------------||-0--3p0-3h5-6-0-0-3p0-3h5-6-|-0-0--0-0--0-0--0-0--0-0--0-0--0-0--0-0-||-0--3p0-3h5-6-0-0-3p0-3h5-6-|-0-0--0-0--0-0--0-0--0-0--0-0--0-0--0-0-||-0--3p0-3h5-6-0-0-3p0-3h5-6-|-0-0--0-0--0-0--0-0--0-0--0-0--0-0--0-0-| Play x 4 |
1| 2||---------------|-----------|---------------------||---------------|-----------|-----------------0~~-||---------------|-----------|-----------------0~~-||-0-0--0-0--0-0-|-0-0-0-0-0-|-6-0-0-8-0-0-9-8-6~~-||-0-0--0-0--0-0-|-0-0-0-0-0-|-6-0-0-8-0-0-9-8-6~~-||-0-0--0-0--0-0-|-0-0-0-0-0-|-6-0-0-8-0-0-9-8-6~~-|
Verse 1,3||-------------------------------------------------------|-----------||-------------------------------------------------------|-----------||-------------------------------------------------------|-----------||-0-0--0-0--0-0--0-0--0-0--0-0--0-0--0-0--0-0--0-0--0-0-|-0-0-0-0-0-||-0-0--0-0--0-0--0-0--0-0--0-0--0-0--0-0--0-0--0-0--0-0-|-0-0-0-0-0-||-0-0--0-0--0-0--0-0--0-0--0-0--0-0--0-0--0-0--0-0--0-0-|-0-0-0-0-0-|
2| 4||---------------------|-----------------||---------------------|-----------------||---------------------|-----------------||-10h12-10h12-10h12-0-|-3-0-0-4-0-0-3h4-||-10h12-10h12-10h12-0-|-3-0-0-4-0-0-3h4-||-10h12-10h12-10h12-0-|-3-0-0-4-0-0-3h4-|
Chorus
|----------------------------||----------------------------||----------------------------||-0--3p0-3h5-6-0-0-3p0-3h5-6-||-0--3p0-3h5-6-0-0-3p0-3h5-6-||-0--3p0-3h5-6-0-0-3p0-3h5-6-| Play x 4
1||-------------------------------------------------------|-----------||-------------------------------------------------------|-----------||-------------------------------------------------------|-----------||-0-0--0-0--0-0--0-0--0-0--0-0--0-0--0-0--0-0--0-0--0-0-|-0-0-0-0-0-||-0-0--0-0--0-0--0-0--0-0--0-0--0-0--0-0--0-0--0-0--0-0-|-0-0-0-0-0-||-0-0--0-0--0-0--0-0--0-0--0-0--0-0--0-0--0-0--0-0--0-0-|-0-0-0-0-0-|
| Guitar 1|-------------------------------------------------------|-----------||-12-12-12-12-12-12-12-12-12-12-12-12-12-12-12-12-12-12-|-12-12-12-0||-12-12-12-12-12-12-12-12-12-12-12-12-12-12-12-12-12-12-|-12-12-12-0||-------------------------------------------------------|----------0||-10-10-10-10-10-10-10-10-10-10-10-10-10-10-10-10-10-10-|-10-10-10--||-//-//-//-//-//-//-//-//-//-//-//-//-//-//-//-//-//-//-|-//-//-//--| Guitar 2
2||----------------------||----------------------||----------------------||-7-0-0-8-0-0-8h9-0--7-||-7-0-0-8-0-0-8h9-0--7-||-7-0-0-8-0-0-8h9-0--7-|
| Guitar 1|----------------------||-15~~-----------------||-15~~-----------------||-12~~-----------------||-13~~-----------------||----------------------| Guitar 2
|----------------------------||----------------------------||----------------------------||-0--3p0-3h5-6-0-0-3p0-3h5-6-||-0--3p0-3h5-6-0-0-3p0-3h5-6-||-0--3p0-3h5-6-0-0-3p0-3h5-6-| Play x 4
Middle 8
|--------------------------------|-----------------------------------||--------------------------------|-----------------------------------||--------------------------------|-----------------------------------||-0--0-10-10-10-9--9-9-0-3-0-3h5-|-0-3p0-3-0-3p0-3-0-3p0-3-0-3-0-3h5-||-0--0-10-10-10-9--9-9-0-3-0-3h5-|-0-3p0-3-0-3p0-3-0-3p0-3-0-3-0-3h5-||-0--0-10-10-10-9--9-9-0-3-0-3h5-|-0-3p0-3-0-3p0-3-0-3p0-3-0-3-0-3h5-| Play x 6 | Play x 4
Outro
|--------------------------------|-----||--------------------------------|-0~~-||--------------------------------|-0~~-||-0--0-10-10-10-9--9-9-0-3-0-3h5-|-6~~-||-0--0-10-10-10-9--9-9-0-3-0-3h5-|-6~~-||-0--0-10-10-10-9--9-9-0-3-0-3h5-|-6~~-|
| Guitar 1 Play x 12 ||--------------------------------|-----||-15~~---------------------------|-----||-15~~---------------------------|-----||-12~~---------------------------|-----||-13~~---------------------------|-----||--------------------------------|-----| Guitar 2 (enters 3 time)
2 – Ironhead Drop D Tuning – D, A, D, G, B, E
Intro 1,2,3,4,5,6,7| |---------------------------|------------|-----------|---------------||---------------------------|------------|-----------|---------------||---------------------------|------------|-----------|---------------||-7-8-7-0--7-8-7-0--7-0-7-0-|-3p0--x-3/5-|-x-2/3-2/3-|-2-2--2-2--2-2-||-7-8-7-0--7-8-7-0--7-0-7-0-|-3p0--x-3/5-|-x-2/3-2/3-|-2-2--2-2--2-2-||-7-8-7-0--7-8-7-0--7-0-7-0-|-3p0--x-3/5-|-x-2/3-2/3-|-2-2--2-2--2-2-|
8||-----------------------------||-----------------------------||-----------------------------||-2-2--2-2--2-2--2-2--2-3-4~~-||-2-2--2-2--2-2--2-2--2-3-4~~-||-2-2--2-2--2-2--2-2--2-3-4~~-|
Verse
|-----------------------||-----------------------||-----------------------||-3p0--x-3/5--x-2/3-2/3-||-3p0--x-3/5--x-2/3-2/3-||-3p0--x-3/5--x-2/3-2/3-| Play x 8
Chorus
|------------------------------------||------------------------------------||------------------------------------||-3-0-0-3-0-0-3h5-5-0--3-0-0-7-8-7-0-||-3-0-0-3-0-0-3h5-5-0--3-0-0-7-8-7-0-||-3-0-0-3-0-0-3h5-5-0--3-0-0-7-8-7-0-| Play x 4
|-----------------------||-----------------------||-----------------------||-3p0--x-3/5--x-2/3-2/3-||-3p0--x-3/5--x-2/3-2/3-||-3p0--x-3/5--x-2/3-2/3-| Play x 8
|------------------------------------|------------------||------------------------------------|------------------||------------------------------------|------------------||-3-0-0-3-0-0-3h5-5-0--3-0-0-7-8-7-0-|-7-8-7-0--7-0-7-0-||-3-0-0-3-0-0-3h5-5-0--3-0-0-7-8-7-0-|-7-8-7-0--7-0-7-0-||-3-0-0-3-0-0-3h5-5-0--3-0-0-7-8-7-0-|-7-8-7-0--7-0-7-0-| Play x 4 |
Middle 8 1,3| 2,4||-----------------------------|---------|---------||-----------------------------|---------|---------||-----------------------------|---------|---------||-7-7-7-7-7-7-7-7-7-7-7-7-7-7-|-7-0-0-0-|-7-8-7-0-||-7-7-7-7-7-7-7-7-7-7-7-7-7-7-|-7-0-0-0-|-7-8-7-0-||-7-7-7-7-7-7-7-7-7-7-7-7-7-7-|-7-0-0-0-|-7-8-7-0-|
1,2||----------------------|---------||--------0--0-0-0--0-0-|---------||--------0--0-0-0--0-0-|---------||-0--0-0-7--7-7-6--6-6-|-3-0-3h5-||-0--0-0-7--7-7-6--6-6-|-3-0-3h5-||-0--0-0-7--7-7-6--6-6-|-3-0-3h5-| Play x 3
Solo
|--------------------------------------------------------||--------------------------------------------------------||--------------------------------------------------------||-3p0--x-3h5--x-3p0--x-3h5--x-3p0--x-3h5--x-3p0--x-3h5-6-||-3p0--x-3h5--x-3p0--x-3h5--x-3p0--x-3h5--x-3p0--x-3h5-6-||-3p0--x-3h5--x-3p0--x-3h5--x-3p0--x-3h5--x-3p0--x-3h5-6-| Play x 4
|----------------------|-----------------------||----------------------|-----------------------||----------------------|-----------------------||-2h3--2h3--2h3--2h3-4-|-3p0--x-3/5--x-2/3-2/3-||-2h3--2h3--2h3--2h3-4-|-3p0--x-3/5--x-2/3-2/3-||-2h3--2h3--2h3--2h3-4-|-3p0--x-3/5--x-2/3-2/3-| Play x 4 | Play x 3
Outro
|------------------------------------|-------------------------------||------------------------------------|-------------------------------||------------------------------------|-------------------------------||-3-0-0-3-0-0-3h5-5-0--3-0-0-7-8-7-0-|-7-8-7-0--7-0-5-0-3-0-3h5-2--2-||-3-0-0-3-0-0-3h5-5-0--3-0-0-7-8-7-0-|-7-8-7-0--7-0-5-0-3-0-3h5-2--2-||-3-0-0-3-0-0-3h5-5-0--3-0-0-7-8-7-0-|-7-8-7-0--7-0-5-0-3-0-3h5-2--2-| Play x 3 |
3 – Give It Drop D Tuning – D, A, D, G, B, E Intro
|------|-----------------------------------------------------------------||-BASS-|-----------------------------------------------------------------||------|-----------------------------------------------------------------||------|-121212121212121212121212121210101010101010101010101010109-9-9-9-||-ONLY-|-121212121212121212121212121210101010101010101010101010109-9-9-9-||------|-121212121212121212121212121210101010101010101010101010109-9-9-9-|
|-------------------------------------------------||-------------------------------------------------||-------------------------------------------------||-9-9-9-9-9-9-9-9-9-9-5-5-5-5-5-5-5-5-5-5-5-5-5-5-||-9-9-9-9-9-9-9-9-9-9-5-5-5-5-5-5-5-5-5-5-5-5-5-5-||-9-9-9-9-9-9-9-9-9-9-5-5-5-5-5-5-5-5-5-5-5-5-5-5-|
Verse 1,5,7| 2,4,6,8| 3||-----------|----------------|----------------------|---------------||-----------|----------------|----------------------|---------------||-----------|----------------|----------------------|---------------||-0-0-0-3-0-|-0--0-0-/9-10-9-|-3-3-3-2-2-3-4--4-6-6-|-0--0-0-/10-10-||-0-0-0-3-0-|-0--0-0-/9-10-9-|-3-3-3-2-2-3-4--4-6-6-|-0--0-0-/10-10-||-0-0-0-3-0-|-0--0-0-/9-10-9-|-3-3-3-2-2-3-4--4-6-6-|-0--0-0-/10-10-|
Chorus 1,3| 2| 4||-----------------|-------------|------------|-------------------------||-----------------|-------------|------------|-------------------------||-----------------|-------------|------------|-------------------------||-0-0-0-12-0-0-10-|-0-0-10--6-5-|-2-3-3-/6-6-|-10-10-10-10-10-10-10-10-||-0-0-0-12-0-0-10-|-0-0-10--6-5-|-2-3-3-/6-6-|-10-10-10-10-10-10-10-10-||-0-0-0-12-0-0-10-|-0-0-10--6-5-|-2-3-3-/6-6-|-10-10-10-10-10-10-10-10-|
1,3,5,7| 2,4,6,8||-----------|----------------|----------------------||-----------|----------------|----------------------||-----------|----------------|----------------------||-0-0-0-3-0-|-0--0-0-/9-10-9-|-3-3-3-2-2-3-4--4-6-6-||-0-0-0-3-0-|-0--0-0-/9-10-9-|-3-3-3-2-2-3-4--4-6-6-||-0-0-0-3-0-|-0--0-0-/9-10-9-|-3-3-3-2-2-3-4--4-6-6-|
1,3| 2,4||-----------------|-------------|------------||-----------------|-------------|------------||-----------------|-------------|------------||-0-0-0-12-0-0-10-|-0-0-10--6-5-|-2-3-3-/6-6-||-0-0-0-12-0-0-10-|-0-0-10--6-5-|-2-3-3-/6-6-||-0-0-0-12-0-0-10-|-0-0-10--6-5-|-2-3-3-/6-6-|
Middle 8
|----------------||----------------||----------------||-0-0-2-4-4--6-6-||-0-0-2-4-4--6-6-||-0-0-2-4-4--6-6-|
| Guitar 1 Play x 16|----------------|-----------------||----------------|-----------------||-5-5-5-5-5-5-5--|-7-7^-7^-7^-7^-7^||----------------|-----------------||----------------|-----------------||----------------|-----------------| Guitar 2 (enters 4th time) Play x 4 | Play x 4
Solo 1,2,3,4,5||-----------------------------------------|---------------||-----------------------------------------|---------------||-----------------------------------------|---------------||-0-0-0-3-0-0--0-0-3-0-3-0-0-0-3-0--3-3-3-|-2-2-3-2-2-3-3-||-0-0-0-3-0-0--0-0-3-0-3-0-0-0-3-0--3-3-3-|-2-2-3-2-2-3-3-||-0-0-0-3-0-0--0-0-3-0-3-0-0-0-3-0--3-3-3-|-2-2-3-2-2-3-3-|
6||----------------||----------------||----------------||-2-2-3-4--4-6-6-||-2-2-3-4--4-6-6-||-2-2-3-4--4-6-6-|
1,3| 2,4||-----------------|-------------|------------||-----------------|-------------|------------||-----------------|-------------|------------||-0-0-0-12-0-0-10-|-0-0-10--6-5-|-2-3-3-/6-6-||-0-0-0-12-0-0-10-|-0-0-10--6-5-|-2-3-3-/6-6-||-0-0-0-12-0-0-10-|-0-0-10--6-5-|-2-3-3-/6-6-|
Outro
|----------------||----------------||----------------||-0-0-2-4-4--6-6-||-0-0-2-4-4--6-6-||-0-0-2-4-4--6-6-|
| Guitar 1 Play x 32|----------------|------------4-6-|-------------------------||-3p0-3p0-3p0-3p0|-----5-7-7------|-3p0-3p0-3p0-3p0-3p0-3p0-||-3p0-3p0-3p0-3p0|-7-7------------|-3p0-3p0-3p0-3p0-3p0-3p0-||-3p0-3p0-3p0-3p0|----------------|-3p0-3p0-3p0-3p0-3p0-3p0-||----------------|----------------|-------------------------||----------------|----------------|-------------------------| Play x 16 | Play x 16 | Play x 2
4 – Unsung Drop D Tuning – D, A, D, G, B, E Intro
|------|-----------------|-----------------|-----||-BASS-|-----------------|-----------------|-----||------|-----------------|-----------------|-----||------|-2-2-2-3-3-3-5-5-|-2-2-2-3-3-3-5-5-|-0~~-||-ONLY-|-2-2-2-3-3-3-5-5-|-2-2-2-3-3-3-5-5-|-0~~-||------|-2-2-2-3-3-3-5-5-|-2-2-2-3-3-3-5-5-|-0~~-|
| G 1 | Play x 4 (w/PM) | Play x 6 ||------|-----------------|---------3~~-----|-----||------|-----------------|-5~~-0---3~~-----|-----||------|-----------------|---------0~~-----|-----||------|-----------------|---------0~~-----|-0~~-||------|-----------------|-----------------|-0~~-||------|-----------------|-----------------|-0~~-| Guitar 2
Verse
|--------------------------------------------||--------------------------------------------||--------------------------------------------||-2-2-2--2-0-2--2-2-2--2-0-2-2-2-2-3-3-3-5-5-||-2-2-2--2-0-2--2-2-2--2-0-2-2-2-2-3-3-3-5-5-||-2-2-2--2-0-2--2-2-2--2-0-2-2-2-2-3-3-3-5-5-| Play x 6
Chorus
|-----------------------------------------------------------------||-----------------------------------------------------------------||-----------------------------------------------------------------||-0-0-0-0-0-0-0-0-0-0-0-0-0-0-0-0-2-2-2-2-2-2-2-2-2-2-2-2-2-2-2-2-||-0-0-0-0-0-0-0-0-0-0-0-0-0-0-0-0-2-2-2-2-2-2-2-2-2-2-2-2-2-2-2-2-||-0-0-0-0-0-0-0-0-0-0-0-0-0-0-0-0-2-2-2-2-2-2-2-2-2-2-2-2-2-2-2-2-| Play x 2
|-----------------------------------------------------||-----------------------------------------------------||-----------------------------------------------------||-10-10-10-10-10-10-10-10-10-10-10-10-7-7-7-7-7-7-7-7-||-10-10-10-10-10-10-10-10-10-10-10-10-7-7-7-7-7-7-7-7-||-10-10-10-10-10-10-10-10-10-10-10-10-7-7-7-7-7-7-7-7-|
Post – Chorus
|----------------------||----------------------||----------------------||-0---2-0-2--0---2-2-2-||-0---2-0-2--0---2-2-2-||-0---2-0-2--0---2-2-2-|
|--------------------------------------------||--------------------------------------------||--------------------------------------------||-2-2-2--2-0-2--2-2-2--2-0-2-2-2-2-3-3-3-5-5-||-2-2-2--2-0-2--2-2-2--2-0-2-2-2-2-3-3-3-5-5-||-2-2-2--2-0-2--2-2-2--2-0-2-2-2-2-3-3-3-5-5-| Play x 6
|-----------------------------------------------------------------||-----------------------------------------------------------------||-----------------------------------------------------------------||-0-0-0-0-0-0-0-0-0-0-0-0-0-0-0-0-2-2-2-2-2-2-2-2-2-2-2-2-2-2-2-2-||-0-0-0-0-0-0-0-0-0-0-0-0-0-0-0-0-2-2-2-2-2-2-2-2-2-2-2-2-2-2-2-2-||-0-0-0-0-0-0-0-0-0-0-0-0-0-0-0-0-2-2-2-2-2-2-2-2-2-2-2-2-2-2-2-2-|
|-----------------------------------------------------------------------||-----------------------------------------------------------------------||-----------------------------------------------------------------------||-10-10-10-10-10-10-10-10-10-10-10-10-7-7-7-7-7-7-7-7-10-10-10-10-10-10-||-10-10-10-10-10-10-10-10-10-10-10-10-7-7-7-7-7-7-7-7-10-10-10-10-10-10-||-10-10-10-10-10-10-10-10-10-10-10-10-7-7-7-7-7-7-7-7-10-10-10-10-10-10-|
|-----------------------------------------------------------------------||-----------------------------------------------------------------------||-----------------------------------------------------------------------||-10-10-0-0-0-0-0-0-0-0-0-0-0-0-0-0-0-0-2-2-2-2-2-2-2-2-2-2-2-2-2-2-2-2-||-10-10-0-0-0-0-0-0-0-0-0-0-0-0-0-0-0-0-2-2-2-2-2-2-2-2-2-2-2-2-2-2-2-2-||-10-10-0-0-0-0-0-0-0-0-0-0-0-0-0-0-0-0-2-2-2-2-2-2-2-2-2-2-2-2-2-2-2-2-|
|----------------------------------------------------------||----------------------------------------------------------||----------------------------------------------------------||-3-3-3-3-3-3-3-3-3-3-3-3-3-3-3-3-/12-12-12-12-12-12-12-12-||-3-3-3-3-3-3-3-3-3-3-3-3-3-3-3-3-/12-12-12-12-12-12-12-12-||-3-3-3-3-3-3-3-3-3-3-3-3-3-3-3-3-/12-12-12-12-12-12-12-12-|
Middle 8
|-------------------------------------------------------------------||-------------------------------------------------------------------||-------------------------------------------------------------------||-5h7-7-7-5h7-7-7-5h7-7-7-5h7-7-7-5h7-7-7-5h7-7-7-5h7-7-7-5h7-7-7-8-||-5h7-7-7-5h7-7-7-5h7-7-7-5h7-7-7-5h7-7-7-5h7-7-7-5h7-7-7-5h7-7-7-8-||-5h7-7-7-5h7-7-7-5h7-7-7-5h7-7-7-5h7-7-7-5h7-7-7-5h7-7-7-5h7-7-7-8-| Play x 2
|-------------||-------------||-------------||-0-0-2-0-2-3-||-0-0-2-0-2-3-||-0-0-2-0-2-3-|
|-------------------------------------------------------------------||-------------------------------------------------------------------||-------------------------------------------------------------------||-5h7-7-7-5h7-7-7-5h7-7-7-5h7-7-7-5h7-7-7-5h7-7-7-5h7-7-7-5h7-7-7-8-||-5h7-7-7-5h7-7-7-5h7-7-7-5h7-7-7-5h7-7-7-5h7-7-7-5h7-7-7-5h7-7-7-8-||-5h7-7-7-5h7-7-7-5h7-7-7-5h7-7-7-5h7-7-7-5h7-7-7-5h7-7-7-5h7-7-7-8-|
| Guitar 1|-5-5-5-5-5-5-5-5-5-5-5-5-5-5-5-5-5-5-5-5-5-5-5-5-5-5-5-5-5-5-5-5-5-||-5-5-5-5-5-5-5-5-5-5-5-5-5-5-5-5-5-5-5-5-5-5-5-5-5-5-5-5-5-5-5-5-5-||-0-0-0-0-0-0-0-0-0-0-0-0-0-0-0-0-0-0-0-0-0-0-0-0-0-0-0-0-0-0-0-0-0-||-7-7-7-7-7-7-7-7-7-7-7-7-7-7-7-7-7-7-7-7-7-7-7-7-7-7-7-7-7-7-7-7-7-||-0-0-0-0-0-0-0-0-0-0-0-0-0-0-0-0-0-0-0-0-0-0-0-0-0-0-0-0-0-0-0-0-0-||-------------------------------------------------------------------| Guitar 2 Play x 2
|-------------||-------------||-------------||-0-0-2-0-2-3-||-0-0-2-0-2-3-||-0-0-2-0-2-3-|
|-------------------------------------------------------------------||-------------------------------------------------------------------||-------------------------------------------------------------------||-5h7-7-7-5h7-7-7-5h7-7-7-5h7-7-7-5h7-7-7-5h7-7-7-5h7-7-7-5h7-7-7-8-||-5h7-7-7-5h7-7-7-5h7-7-7-5h7-7-7-5h7-7-7-5h7-7-7-5h7-7-7-5h7-7-7-8-||-5h7-7-7-5h7-7-7-5h7-7-7-5h7-7-7-5h7-7-7-5h7-7-7-5h7-7-7-5h7-7-7-8-|
| Guitar 1|-5-5-5-5-5-5-5-5-5-5-5-5-5-5-5-5-5-5-5-5-5-5-5-5-5-5-5-5-5-5-5-5-5-||-5-5-5-5-5-5-5-5-5-5-5-5-5-5-5-5-5-5-5-5-5-5-5-5-5-5-5-5-5-5-5-5-5-||-0-0-0-0-0-0-0-0-0-0-0-0-0-0-0-0-0-0-0-0-0-0-0-0-0-0-0-0-0-0-0-0-0-||-7-7-7-7-7-7-7-7-7-7-7-7-7-7-7-7-7-7-7-7-7-7-7-7-7-7-7-7-7-7-7-7-7-||-0-0-0-0-0-0-0-0-0-0-0-0-0-0-0-0-0-0-0-0-0-0-0-0-0-0-0-0-0-0-0-0-0-||-------------------------------------------------------------------| Guitar 2 Play x 2
|-----------------------------------------------------||-----------------------------------------------------||-----------------------------------------------------||-0-0-2-0-2-3--0-0-2-0-2-3--0-0-2-0-2-3--0-0-2-0-3-/5-||-0-0-2-0-2-3--0-0-2-0-2-3--0-0-2-0-2-3--0-0-2-0-3-/5-||-0-0-2-0-2-3--0-0-2-0-2-3--0-0-2-0-2-3--0-0-2-0-3-/5-| Play x 4
Outro
|-------|-3-3-3-3-3-3-3-3-3-3-3-3-3-3-3-3-1-1-1-1-1-1-1-1-1-1-1-1-1-1-1-1-||-------|-3-3-3-3-3-3-3-3-3-3-3-3-3-3-3-3-1-1-1-1-1-1-1-1-1-1-1-1-1-1-1-1-||-------|-0-0-0-0-0-0-0-0-0-0-0-0-0-0-0-0-0-0-0-0-0-0-0-0-0-0-0-0-0-0-0-0-||-0---2-|-5-5-5-5-5-5-5-5-5-5-5-5-5-5-5-5-3-3-3-3-3-3-3-3-3-3-3-3-3-3-3-3-||-0---2-|-----------------------------------------------------------------||-0---2-|-----------------------------------------------------------------|
|-3-3-3-3-3-3-3-3-3-3-3-3-3-3-3-3-3-3-3-3-3-3-3-3-3-3-3-3-3-3-3-3-||-3-3-3-3-3-3-3-3-3-3-3-3-3-3-3-3-3-3-3-3-3-3-3-3-3-3-3-3-3-3-3-3-||-0-0-0-0-0-0-0-0-0-0-0-0-0-0-0-0-0-0-0-0-0-0-0-0-0-0-0-0-0-0-0-0-||-5-5-5-5-5-5-5-5-5-5-5-5-5-5-5-5-5-5-5-5-5-5-5-5-5-5-5-5-5-5-5-5-||-----------------------------------------------------------------||-----------------------------------------------------------------|
|-1-1-1-1-1-1-1-1-1-1-1-1-1-1-1-1-/10-10-10-10-10-10-10-10-10-10-10-10-10-||-1-1-1-1-1-1-1-1-1-1-1-1-1-1-1-1-/10-10-10-10-10-10-10-10-10-10-10-10-10-||-0-0-0-0-0-0-0-0-0-0-0-0-0-0-0-0--0--0--0--0--0--0--0--0--0--0--0--0--0--||-3-3-3-3-3-3-3-3-3-3-3-3-3-3-3-3-/12-12-12-12-12-12-12-12-12-12-12-12-12-||-------------------------------------------------------------------------||-------------------------------------------------------------------------|
|-5-5-5-5-5-5-5-5-5-5-5-5-5-5-5-5-5-5-5-5-5-5-5-5-5-5-5-5-5-5-5-5-||-5-5-5-5-5-5-5-5-5-5-5-5-5-5-5-5-5-5-5-5-5-5-5-5-5-5-5-5-5-5-5-5-||-0-0-0-0-0-0-0-0-0-0-0-0-0-0-0-0-0-0-0-0-0-0-0-0-0-0-0-0-0-0-0-0-||-7-7-7-7-7-7-7-7-7-7-7-7-7-7-7-7-7-7-7-7-7-7-7-7-7-7-7-7-7-7-7-7-||-0-0-0-0-0-0-0-0-0-0-0-0-0-0-0-0-0-0-0-0-0-0-0-0-0-0-0-0-0-0-0-0-||-----------------------------------------------------------------|
|-5-5-5-5-5-5-5-5-5-5-5-5-5-5-5-5-------------||-5-5-5-5-5-5-5-5-5-5-5-5-5-5-5-5-------------||-0-0-0-0-0-0-0-0-0-0-0-0-0-0-0-0-------------||-7-7-7-7-7-7-7-7-7-7-7-7-7-7-7-7-2-0-2-0-2-3-||-0-0-0-0-0-0-0-0-0-0-0-0-0-0-0-0-2-0-2-0-2-3-||---------------------------------2-0-2-0-2-3-|
5 – Turned Out Drop D Tuning – D, A, D, G, B, E Intro
|---------------------------------||------------0-0-0--0--0-0-0--0-0-||------------0-0-0--0--0-0-0--0-0-||-0-0-2-2-3--3-3-3--3--3-3-3--3-3-||-0-0-2-2-3--3-3-3--3--3-3-3--3-3-||-0-0-2-2-3--3-3-3--3--3-3-3--3-3-| Play x 3
Verse
|---------|--------------------------|-----------------||---------|--------------------------|-----------------||---------|--------------------------|-----------------||-4-3-0-3-|-3-0-4-3-0-3--3-0-4-3-0-3-|-4-3-0-5-3-0-2~~-||-4-3-0-3-|-3-0-4-3-0-3--3-0-4-3-0-3-|-4-3-0-5-3-0-2~~-||-4-3-0-3-|-3-0-4-3-0-3--3-0-4-3-0-3-|-4-3-0-5-3-0-2~~-| | Play x 7 |
|---------|--------------------------||---------|--------------------------||---------|--------------------------||-4-3-0-3-|-3-0-4-3-0-3--3-0-4-3-0-3-||-4-3-0-3-|-3-0-4-3-0-3--3-0-4-3-0-3-||-4-3-0-3-|-3-0-4-3-0-3--3-0-4-3-0-3-| | Play x 7
Chorus
|-----3-3-3-----5-5-5-----6-6-6-----8-8-8-8-8-8-||-----3-3-3-----5-5-5-----6-6-6-----8-8-8-8-8-8-||-----2-2-2-----4-4-4-----5-5-5-----7-7-7-7-7-7-||-0-0-0-0---2-2-2-2---3-3-3-3---5-5-5-5---------||-0-0-0-0---2-2-2-2---3-3-3-3---5-5-5-5---------||-0-0-0-0---2-2-2-2---3-3-3-3---5-5-5-5---------| Play x 2
Post – Chorus 1,3| 2,4||-------------------------|--------------------------|-----------------||-------------------------|--------------------------|-----------------||-------------------------|--------------------------|-----------------||-4-3-0-0-4-3-0-0-4-3-0-3-|-0-0-4-3-0-0-4-3-/7-6-6-6-|-0-0-0-4-3-0-0-0-||-4-3-0-0-4-3-0-0-4-3-0-3-|-0-0-4-3-0-0-4-3-/7-6-6-6-|-0-0-0-4-3-0-0-0-||-4-3-0-0-4-3-0-0-4-3-0-3-|-0-0-4-3-0-0-4-3-/7-6-6-6-|-0-0-0-4-3-0-0-0-| PM………………………………………………………………………………………………………… PM…………………………………
Middle 8
|-----------|---------------------------------||-----------|-0-0-0-0-0-0-0-0-0-0-0-0-0-0-0-0-||-----------|-0-0-0-0-0-0-0-0-0-0-0-0-0-0-0-0-||-0-0-3-0-3-|-5-5-5-5-5-5-5-5-5-5-5-5-5-5-5-5-||-0-0-3-0-3-|-5-5-5-5-5-5-5-5-5-5-5-5-5-5-5-5-||-0-0-3-0-3-|-5-5-5-5-5-5-5-5-5-5-5-5-5-5-5-5-| | Play x 2
Solo
|--------------------------|---------||--------------------------|---------||--------------------------|---------||-3-3-3-5-3-0-0--0-0-3-0-0-|-5-3-0-0-||-3-3-3-5-3-0-0--0-0-3-0-0-|-5-3-0-0-||-3-3-3-5-3-0-0--0-0-3-0-0-|-5-3-0-0-| PM………………………………………………………… | Play x 28 |
|-----3-3-3-----5-5-5-----6-6-6-----8-8-8-8-8-8-||-----3-3-3-----5-5-5-----6-6-6-----8-8-8-8-8-8-||-----2-2-2-----4-4-4-----5-5-5-----7-7-7-7-7-7-||-0-0-0-0---2-2-2-2---3-3-3-3---5-5-5-5---------||-0-0-0-0---2-2-2-2---3-3-3-3---5-5-5-5---------||-0-0-0-0---2-2-2-2---3-3-3-3---5-5-5-5---------| Play x 4
1,3| 2,4||-------------------------|--------------------------|--------------------||-------------------------|--------------------------|--------------------||-------------------------|--------------------------|-----------------17^||-4-3-0-0-4-3-0-0-4-3-0-3-|-0-0-4-3-0-0-4-3-/7-6-6-6-|-0-0-0-4-3-0-0-0----||-4-3-0-0-4-3-0-0-4-3-0-3-|-0-0-4-3-0-0-4-3-/7-6-6-6-|-0-0-0-4-3-0-0-0----||-4-3-0-0-4-3-0-0-4-3-0-3-|-0-0-4-3-0-0-4-3-/7-6-6-6-|-0-0-0-4-3-0-0-0----|
Outro
|---------------------------------|-----------------||------------0-0-0--0--0-0-0--0-0-|-----------------||------------0-0-0--0--0-0-0--0-0-|-----------------||-0-0-2-2-3--3-3-3--3--3-3-3--3-3-|-4-3-0-5-3-0-2~~-||-0-0-2-2-3--3-3-3--3--3-3-3--3-3-|-4-3-0-5-3-0-2~~-||-0-0-2-2-3--3-3-3--3--3-3-3--3-3-|-4-3-0-5-3-0-2~~-| Play x 3 |
6 – He Feels Bad Drop D Tuning – D, A, D, G, B, E Intro
|-------------------------------------------------------------------||-------------------------------------------------------------------||-------------------------------------------------------------------||-0-----5-5-3-3^-0-----0-2-3-5-6-6-0-----0-5-0-3^-0-----0-2-3-5-6-6-||-0-----5-5-3-3^-0-----0-2-3-5-6-6-0-----0-5-0-3^-0-----0-2-3-5-6-6-||-0-----5-5-3-3^-0-----0-2-3-5-6-6-0-----0-5-0-3^-0-----0-2-3-5-6-6-|
Verse 1,3| 2,4||------------------------------|------|-----------------||------------------------------|------|-----------------||------------------------------|------|-----------------||-0--2-3-3-0--0-2-3-0--2-3-3-0-|-5-3^-|-6-6-5-5-3-3-2-2-||-0--2-3-3-0--0-2-3-0--2-3-3-0-|-5-3^-|-6-6-5-5-3-3-2-2-||-0--2-3-3-0--0-2-3-0--2-3-3-0-|-5-3^-|-6-6-5-5-3-3-2-2-|
|--------------------------------------------||--------------------------------------------||--------------------------------------------||-/6-6-6-6-6-6-5-5-5-1-1-1-1-1-1-1-1-1-0-0-0-||-/6-6-6-6-6-6-5-5-5-1-1-1-1-1-1-1-1-1-0-0-0-||-/6-6-6-6-6-6-5-5-5-1-1-1-1-1-1-1-1-1-0-0-0-| Play x 2
1,3| 2,4||------------------------------|------|-----------------||------------------------------|------|-----------------||------------------------------|------|-----------------||-0--2-3-3-0--0-2-3-0--2-3-3-0-|-5-3^-|-6-6-5-5-3-3-2-2-||-0--2-3-3-0--0-2-3-0--2-3-3-0-|-5-3^-|-6-6-5-5-3-3-2-2-||-0--2-3-3-0--0-2-3-0--2-3-3-0-|-5-3^-|-6-6-5-5-3-3-2-2-|
Chorus
|---------------------------------||---------------------------------||---------------------------------||-0--5-3--0--5-3--0--5-3-6--6-6-5-||-0--5-3--0--5-3--0--5-3-6--6-6-5-||-0--5-3--0--5-3--0--5-3-6--6-6-5-| Play x 4
1,3| 2,4||------------------------------|------|-----------------||------------------------------|------|-----------------||------------------------------|------|-----------------||-0--2-3-3-0--0-2-3-0--2-3-3-0-|-5-3^-|-6-6-5-5-3-3-2-2-||-0--2-3-3-0--0-2-3-0--2-3-3-0-|-5-3^-|-6-6-5-5-3-3-2-2-||-0--2-3-3-0--0-2-3-0--2-3-3-0-|-5-3^-|-6-6-5-5-3-3-2-2-|
|---------------------------------||---------------------------------||---------------------------------||-0--5-3--0--5-3--0--5-3-6--6-6-5-||-0--5-3--0--5-3--0--5-3-6--6-6-5-||-0--5-3--0--5-3--0--5-3-6--6-6-5-| Play x 4
Middle 8
|-------------|----4-4-4-4--------------4-4-4-4--------------||-------------|----3-3-3-3--------------3-3-3-3--------------||-------------|----1-1-1-1--------------1-1-1-1--------------||-3-----3-5-3-|-0-----------5-5-3-3^-0-----------0-2-3-5-6-6-||-3-----3-5-3-|-0-----------5-5-3-3^-0-----------0-2-3-5-6-6-||-3-----3-5-3-|-0-----------5-5-3-3^-0-----------0-2-3-5-6-6-| | Play x 2
|----4-4-4-4--------------4-4-4-4--------------||----3-3-3-3--------------3-3-3-3--------------||----1-1-1-1--------------1-1-1-1--------------||-0-----------0-5-0-3^-0-----------0-2-3-5-6-6-||-0-----------0-5-0-3^-0-----------0-2-3-5-6-6-||-0-----------0-5-0-3^-0-----------0-2-3-5-6-6-|
Solo
|---------------------------------||---------------------------------||---------------------------------||-0--5-3--0--5-3--0--5-3-6--6-6-5-||-0--5-3--0--5-3--0--5-3-6--6-6-5-||-0--5-3--0--5-3--0--5-3-6--6-6-5-| Play x 8
Outro
|-------------|-----------------------||-------------|-----------------------||-------------|-----------------------||-0-2-3-5-6-6-|-0-2-3-5-6-----3-2-0-2-||-0-2-3-5-6-6-|-0-2-3-5-6-----3-2-0-2-||-0-2-3-5-6-6-|-0-2-3-5-6-----3-2-0-2-| Play x 7 |
7 – Better Drop D Tuning – D, A, D, G, B, E Intro
|-----|---------------------------------------------------||-----|---------------------------------------------------||-----|---------------------------------------------------||-2-3-|-0-2-3-0-2-3-0-2-3-0-2-3-0-2-3-0-2-3-0-2-3-0-2-2-3-||-2-3-|-0-2-3-0-2-3-0-2-3-0-2-3-0-2-3-0-2-3-0-2-3-0-2-2-3-||-2-3-|-0-2-3-0-2-3-0-2-3-0-2-3-0-2-3-0-2-3-0-2-3-0-2-2-3-| PM… PM…………………………………………………………………………………………………………………………… | Play x 3
| 1,2,3,4,5,6,7| 8||----------------|---------|---------|-----------||----------------|---------|---------|-----------||----------------|---------|---------|-----------||-5-3-0--0-2-3-0-|-0-5-3-0-|-0-2-3-0-|-0-2-3-2~~-||-5-3-0--0-2-3-0-|-0-5-3-0-|-0-2-3-0-|-0-2-3-2~~-||-5-3-0--0-2-3-0-|-0-5-3-0-|-0-2-3-0-|-0-2-3-2~~-|
Verse
|----------------|------------------|----------------------|-----||----------------|------------------|----------------0-0-0-|-----||----------------|------------------|----------------0-0-0-|-----||-5-3-0--0-2-3-0-|-0-5-3-0--0-2-3-0-|-0-2-3-0-2-3-0--0-0-0-|-0~~-||-5-3-0--0-2-3-0-|-0-5-3-0--0-2-3-0-|-0-2-3-0-2-3-0--------|-0~~-||-5-3-0--0-2-3-0-|-0-5-3-0--0-2-3-0-|-0-2-3-0-2-3-0--------|-0~~-| | Play x 7 | Play x 3 |
|----------------|------------------|----------------------||----------------|------------------|----------------0-0-0-||----------------|------------------|----------------0-0-0-||-5-3-0--0-2-3-0-|-0-5-3-0--0-2-3-0-|-0-2-3-0-2-3-0--0-0-0-||-5-3-0--0-2-3-0-|-0-5-3-0--0-2-3-0-|-0-2-3-0-2-3-0--------||-5-3-0--0-2-3-0-|-0-5-3-0--0-2-3-0-|-0-2-3-0-2-3-0--------| | Play x 7 | Play x 3
Chorus 1,3,5,7| 2,4,6| 8||---------------|---------------|--------------|---------------------||---------------|---------------|--------------|---------------------||---------------|---------------|--------------|---------------------||-0-0--0-3^-0-0-|-0-0-6-5-0-3-5-|-5-6-5--2-3-2-|-5-6-5--5--5--5--5-5-||-0-0--0-3^-0-0-|-0-0-6-5-0-3-5-|-5-6-5--2-3-2-|-5-6-5--5--5--5--5-5-||-0-0--0-3^-0-0-|-0-0-6-5-0-3-5-|-5-6-5--2-3-2-|-5-6-5--5--5--5--5-5-|
Middle 8
|-----------------------------|-----------|--------------||-----------------------------|-----------|--------------||-----------------------------|-----------|--------------||-0---7-8-8-8---0---7-8-5-6-6-|-0-0--0-3^-|-5-6-5--2-3-2-||-0---7-8-8-8---0---7-8-5-6-6-|-0-0--0-3^-|-5-6-5--2-3-2-||-0---7-8-8-8---0---7-8-5-6-6-|-0-0--0-3^-|-5-6-5--2-3-2-| Play x 4 | Play x 16 |
Outro
1,3,5,7| 2,4,6| 8||---------------|---------------|--------------|----------------------||---------------|---------------|--------------|----------------------||---------------|---------------|--------------|----------------------||-0-0--0-3^-0-0-|-0-0-6-5-0-3-5-|-5-6-5--2-3-2-|-7-6-5~~--2-3-2-0-2-2-||-0-0--0-3^-0-0-|-0-0-6-5-0-3-5-|-5-6-5--2-3-2-|-7-6-5~~--2-3-2-0-2-2-||-0-0--0-3^-0-0-|-0-0-6-5-0-3-5-|-5-6-5--2-3-2-|-7-6-5~~--2-3-2-0-2-2-|
8 – You Borrowed Drop D Tuning – D, A, D, G, B, E
Intro 1,3,4| 2||--------------------------|-----|-----||--------------------------|-----|-----||--------------------------|-----|-----||-0--7-0-8--8-/10-1010/3-0-|-3-5-|-3-3-||-0--7-0-6--6-/8--8-8-/3-0-|-3-5-|-3-3-||-0--7-0-6--6-/8--8-8-/3-0-|-3-5-|-3-3-|
Verse
|--------------------------||--------------------------||--------------------------||-0--1--x-1h2--0--1--1h3-3-||-0--1--x-1h2--0--1--1h3-3-||-0--1--x-1h2--0--1--1h3-3-| Play x 6
Chorus 1,3,4| 2||--------------------------|-----|-----||--------------------------|-----|-----||--------------------------|-----|-----||-0--7-0-8--8-/10-1010/3-0-|-3-5-|-3-3-||-0--7-0-6--6-/8--8-8-/3-0-|-3-5-|-3-3-||-0--7-0-6--6-/8--8-8-/3-0-|-3-5-|-3-3-|
|--------------------------|--------------------------------------------||--------------------------|--------------------------------------------||--------------------------|--------------------------------------------||-0--1--x-1h2--0--1--1h3-3-|-0-x-x-1h2-x-x-5--6-5-0-x-x-1h2-x-x-3-x-x-3-||-0--1--x-1h2--0--1--1h3-3-|-0-x-x-1h2-x-x-5--6-5-0-x-x-1h2-x-x-3-x-x-3-||-0--1--x-1h2--0--1--1h3-3-|-0-x-x-1h2-x-x-5--6-5-0-x-x-1h2-x-x-3-x-x-3-| Play x 2 | Play x 4
|--------------------------||--------------------------||--------------------------||-0--1--x-1h2--0--1--1h3-3-||-0--1--x-1h2--0--1--1h3-3-||-0--1--x-1h2--0--1--1h3-3-| Play x 4
1,3,4| 2||--------------------------|-----|-----||--------------------------|-----|-----||--------------------------|-----|-----||-0--7-0-8--8-/10-1010/3-0-|-3-5-|-3-3-||-0--7-0-6--6-/8--8-8-/3-0-|-3-5-|-3-3-||-0--7-0-6--6-/8--8-8-/3-0-|-3-5-|-3-3-|
|--------------------------|--------------------------------------------||--------------------------|--------------------------------------------||--------------------------|--------------------------------------------||-0--1--x-1h2--0--1--1h3-3-|-0-x-x-1h2-x-x-5--6-5-0-x-x-1h2-x-x-3-x-x-3-||-0--1--x-1h2--0--1--1h3-3-|-0-x-x-1h2-x-x-5--6-5-0-x-x-1h2-x-x-3-x-x-3-||-0--1--x-1h2--0--1--1h3-3-|-0-x-x-1h2-x-x-5--6-5-0-x-x-1h2-x-x-3-x-x-3-| Play x 2 | Play x 4
|-------------||-------------||-------------||-4-4-3-x-x-3-||-4-4-3-x-x-3-||-4-4-3-x-x-3-| Play x 4
Solo
|---------------------------------------||---------------------------------------||---------------------------------------||-0~~---------------------0~~-----------||-0~~---------------------0~~-----------||-0~~---------------------0~~-----------|
| Guitar 1|---------------------------------------||---------------------------------------||------------10-9--12~~------10-9--12~~-||---------------------------------------||---------------------------------------||---------------------------------------| Guitar 2
|------------------||------------------||------------------||-0-x-x-3-5--0-6-5-||-0-x-x-3-5--0-6-5-||-0-x-x-3-5--0-6-5-| Play x 16
Outro
|-----------------------------------------------------------------------||-------------------------------------------------------------------0~~-||-------------------------------------------------------------------0~~-||-0-0-0-0-0-0-6-6-6-6-6-6-0-0-0-0-0-0-0-0-0-0-0-0-0-0-0-0-0-0-0-0-0-0~~-||-0-0-0-0-0-0-6-6-6-6-6-6-0-0-0-0-0-0-0-0-0-0-0-0-0-0-0-0-0-0-0-0-0-0~~-||-0-0-0-0-0-0-6-6-6-6-6-6-0-0-0-0-0-0-0-0-0-0-0-0-0-0-0-0-0-0-0-0-0-0~~-|
9 – FBLA II Drop D Tuning - D, A, D, G, B, E
Intro 1,3| 2| 4| |-------------|--------|----------|---------| |-------------|--------|----------|---------| |-------------|--------|----------|---------| |-0-0-0-2-2-2-|-/6-5-3-|-/6-5-3-5-|-6-7-7-6-| |-0-0-0-2-2-2-|-/6-5-3-|-/6-5-3-5-|-6-7-7-6-| |-0-0-0-2-2-2-|-/6-5-3-|-/6-5-3-5-|-6-7-7-6-|
Verse 1,3,5| 2,6| 4| |-----------------------|---------|----------------|---------------| |-----------------------|---------|----------------|---------------| |-----------------------|---------|----------------|---------------| |-0-0-0-2-0---0-0-0-2-0-|-3-2-0-0-|-10h12-12-12-12-|-6-6-5-0-3-3-5-| |-0-0-0-2-0---0-0-0-2-0-|-3-2-0-0-|-10h12-12-12-12-|-6-6-5-0-3-3-5-| |-0-0-0-2-0---0-0-0-2-0-|-3-2-0-0-|-10h12-12-12-12-|-6-6-5-0-3-3-5-|
Chorus
|------------------------| |------------------------| |------------------------| |-0---0---2---2-/6-5-3-5-| |-0---0---2---2-/6-5-3-5-| |-0---0---2---2-/6-5-3-5-| Play x 4
1| 2,5,7| 3| 4,8| 6| |-----------|----|---------|----|----------------|---------------| |-----------|----|---------|----|----------------|---------------| |-----------|----|---------|----|----------------|---------------| |-0-0-0-2-0-|-x/-|-3-2-0-0-|----|-10h12-12-12-12-|-6-6-5-0-3-3-5-| |-0-0-0-2-0-|-x/-|-3-2-0-0-|-x/-|-10h12-12-12-12-|-6-6-5-0-3-3-5-| |-0-0-0-2-0-|----|-3-2-0-0-|-x/-|-10h12-12-12-12-|-6-6-5-0-3-3-5-| ^After 4 time play this part x 2
|------------------------| |------------------------| |------------------------| |-0---0---2---2-/6-5-3-5-| |-0---0---2---2-/6-5-3-5-| |-0---0---2---2-/6-5-3-5-| Play x 4
Middle 8 | 1| 2| 3| 4| |-----------------------|-----------|---|---------|-------|---------------| |-----------------------|-----------|---|---------|-------|---------------| |-----------------------|-----------|---|---------|-------|---------------| |-0-0-0-3-5-5-0---0-0-3-|-0-0-0-2-0-|---|-3-2-0-0-|-------|-6-6-5-0-3-3-5-| |-0-0-0-3-5-5-0---0-0-3-|-0-0-0-2-0-|-4-|-3-2-0-0-|-6^-6^-|-6-6-5-0-3-3-5-| |-0-0-0-3-5-5-0---0-0-3-|-0-0-0-2-0-|-4-|-3-2-0-0-|-6^-6^-|-6-6-5-0-3-3-5-| Play x 8 |
Pre-Solo
|-------------|--------------------|---| |-------------|--------------------|---| |-------------|--------------------|---| |-x-x-x-x-x-x-|-<5><5><5><5><5><5>-|-0-| |-x-x-x-x-x-x-|-<5><5><5><5><5><5>-|-0-| |-x-x-x-x-x-x-|-<5><5><5><5><5><5>-|-0-| Play x 24 | Play x 24 |
Solo | 1||-----------------------|---------|-------------------------------------||-----------------------|---------|-------------------------------------||-----------------------|---------|-------------------------------------||-0-0-0-3-5-5-0---0-0-3-|-6-5---3-|-5-3-0-3-0-0-0-0-0-2-0-0-0-2-2-3-3-2-||-0-0-0-3-5-5-0---0-0-3-|-6-5---3-|-5-3-0-3-0-0-0-0-0-2-0-0-0-2-2-3-3-2-||-0-0-0-3-5-5-0---0-0-3-|-6-5---3-|-5-3-0-3-0-0-0-0-0-2-0-0-0-2-2-3-3-2-|
Play x 16 | 2||---------------| |---------------| |---------------| |-3-1-1-1-1-1-1-| |-3-1-1-1-1-1-1-| |-3-1-1-1-1-1-1-|
Outro
|------------------------|-----| |------------------------|-----| |------------------------|-----| |-0---0---2---2-/6-5-3-5-|-3-3-| |-0---0---2---2-/6-5-3-5-|-3-3-| |-0---0---2---2-/6-5-3-5-|-3-3-| Play x 8 |
10 – Role Model Drop D Tuning - D, A, D, G, B, E
Intro 1,3,5,7| 2,4,6,8| |-----------|---------|--------| |-----------|---------|--------| |-----------|---------|--------| |-0-0-0-2-3-|-0-0-2-3-|-5---/8-| |-0-0-0-2-3-|-0-0-2-3-|-5---/8-| |-0-0-0-2-3-|-0-0-2-3-|-5---/8-|
Verse No Guitar, Just Bass Chorus
|----------------------| |----------------------| |----------------------| |-0-0-0-2-3--0-0-0-2-3-| |-0-0-0-2-3--0-0-0-2-3-| |-0-0-0-2-3--0-0-0-2-3-| Play x 4
Verse
|----------------------------------------------------| |----------------------------------------------------| |----------------------------------------------------| |-<7><7><7><7><7><7><7><7><7><7><7><7><7><7><7><7><7>| |-<7><7><7><7><7><7><7><7><7><7><7><7><7><7><7><7><7>| |-<7><7><7><7><7><7><7><7><7><7><7><7><7><7><7><7><7>|
| Guitar 1 |----------------------------------------------------| |----------------------------------------------------| |----------------------------------------------------| |-0-0-0-2h3-3-0--0-0-2-3--0-0-0-2h3-3-0--0-0-5-3-2-3-| |-0-0-0-2h3-3-0--0-0-2-3--0-0-0-2h3-3-0--0-0-5-3-2-3-| |-0-0-0-2h3-3-0--0-0-2-3--0-0-0-2h3-3-0--0-0-5-3-2-3-| Guitar 2 Play x 4
1,3,5,7| 2,4,6,8| |-----------|---------|--------| |-----------|---------|--------| |-----------|---------|--------| |-0-0-0-2-3-|-0-0-2-3-|-5---/8-| |-0-0-0-2-3-|-0-0-2-3-|-5---/8-| |-0-0-0-2-3-|-0-0-2-3-|-5---/8-|
Solo
|-------------------------| |-------------------------| |-------------------------||-3h5-5-5-5-5-5---5-0-3-5-||-3h5-5-5-5-5-5---5-0-3-5-||-3h5-5-5-5-5-5---5-0-3-5-|
| Guitar 1 - Play x 8|-------------------------------------------------------------------------||-------------------------------------------------------------------------||---7---7-9^----------------9-7h9-9-7h9-9-7h9-9^-p7~~---7---7--9-10-12-14-||-8---8------8--8p7p0h5~~-\---------------------------8---8----/-//-//-//-||-------------------------------------------------------------------------||-------------------------------------------------------------------------|
Guitar 2|--------------17-17^\-||----------------------||-16-17-17-17----------||-//-//-//-//----------||----------------------||----------------------|
|---------------------||---------------------||---------------------||-2--2-0-2--2-2-2-3-0-||-2--2-0-2--2-2-2-3-0-||-2--2-0-2--2-2-2-3-0-| Play x 4
|-------------------------| |-------------------------| |-------------------------||-3h5-5-5-5-5-5---5-0-3-5-||-3h5-5-5-5-5-5---5-0-3-5-| |-3h5-5-5-5-5-5---5-0-3-5-|
| Guitar 1 - Play x 8|----------------------------------------------------------------------||----15----15-17^------------------------------------------------------||-15----15--------15~~-15p14p0h12~~-12h14-0-0-12h14-10~~-10p7-0-10p7-0-||----------------------------------------------------------------------||----------------------------------------------------------------------||----------------------------------------------------------------------|
Guitar 2|------------------------------------------19-21-23^-\-|-----||---------15----18p15-15-15----17-18-20-22-//-//-//----|-0~~-||-10---15----15-------------15-//-//-//-//-------------|-0~~-||------------------------------------------------------|-0~~-||------------------------------------------------------|-----||------------------------------------------------------|-----|
Outro 1 - 8,9,11,13,15|10,12,14,16| |-----------|---------|--------|-----------------------| |-----------|---------|--------|-----------------------| |-----------|---------|--------|-----------------------| |-0-0-0-2-3-|-0-0-2-3-|-5---/8-|-0-2-2-2-2-2-2-3-0-2~~-| |-0-0-0-2-3-|-0-0-2-3-|-5---/8-|-0-2-2-2-2-2-2-3-0-2~~-| |-0-0-0-2-3-|-0-0-2-3-|-5---/8-|-0-2-2-2-2-2-2-3-0-2~~-| Guitar 1
|---------------------------------------------------------------------||---------5-----0-0-0-0-0-0-0-0-0-0-0-0-0-0-0-0-0-0-0-0-0-0-0-0-0-0-/-||-5~~---4---5---0-0-0-0-0-0-0-0-0-0-0-0-0-0-0-0-0-0-0-0-0-0-0-0-0-0-/-||---------------4-4-4-4-4-4-4-4-1-1-1-1-1-1-1-1-4-4-4-4-4-4-4-4-3-3-/-||---------------/-/-/-/-/-/-/-/-/-/-/-/-/-/-/-/-/-/-/-/-/-/-/-/-/-/---||---------------------------------------------------------------------| Guitar 2 (enters when guitar plays outro for 9th time)
|------------------------------------------------------17-18-19-20-19-||-20p18p0-20p18p0-20p18p0-20p18p0-15^-11~~-13p11-13p11-//-//-//-//-//-||-//-//-/-//-//-/-//-//-/-//-//-/-------------------------------------||---------------------------------------------------------------------||---------------------------------------------------------------------||---------------------------------------------------------------------|
|-18-17-\-20-\-------------------||--------------15^-15^-15^-15^~~-||--------------------------------||--------------------------------||--------------------------------||--------------------------------|
And That's It.
Tap to rate this tab
 
# A B C D E F G H I J K L M N O P Q R S T U V W X Y Z