Helmet - In The Meantime tab

-----------------------------------------------------------------------------
                      IN THE MEANTIME - Helmet
-----------------------------------------------------------------------------

Tabbed by an17nin17
email - c.norman83@ntlworld.com

Drop D Tuning – D, A, D, G, B, E

Intro 1| 2||-----16-17^-----17-19^-|-----19-20^-----20-22^-----22^-22^-22^-|-----||-----------------------|---------------------------------------|-----||-----13-14^-----14-16^-|-----16-17^-----17-19^-----19^-19^-19^-|-----||-0-0----//--0-0----//--|-0-0----//--0-0----//--0-0-------------|-0~~-||-0-0--------0-0--------|-0-0--------0-0--------0-0-------------|-0~~-||-0-0--------0-0--------|-0-0--------0-0--------0-0-------------|-0~~-|
|----------------------------|----------------------------------------||----------------------------|----------------------------------------||----------------------------|----------------------------------------||-0--3p0-3h5-6-0-0-3p0-3h5-6-|-0-0--0-0--0-0--0-0--0-0--0-0--0-0--0-0-||-0--3p0-3h5-6-0-0-3p0-3h5-6-|-0-0--0-0--0-0--0-0--0-0--0-0--0-0--0-0-||-0--3p0-3h5-6-0-0-3p0-3h5-6-|-0-0--0-0--0-0--0-0--0-0--0-0--0-0--0-0-| Play x 4 |
1| 2||---------------|-----------|---------------------||---------------|-----------|-----------------0~~-||---------------|-----------|-----------------0~~-||-0-0--0-0--0-0-|-0-0-0-0-0-|-6-0-0-8-0-0-9-8-6~~-||-0-0--0-0--0-0-|-0-0-0-0-0-|-6-0-0-8-0-0-9-8-6~~-||-0-0--0-0--0-0-|-0-0-0-0-0-|-6-0-0-8-0-0-9-8-6~~-|
Verse 1,3||-------------------------------------------------------|-----------||-------------------------------------------------------|-----------||-------------------------------------------------------|-----------||-0-0--0-0--0-0--0-0--0-0--0-0--0-0--0-0--0-0--0-0--0-0-|-0-0-0-0-0-||-0-0--0-0--0-0--0-0--0-0--0-0--0-0--0-0--0-0--0-0--0-0-|-0-0-0-0-0-||-0-0--0-0--0-0--0-0--0-0--0-0--0-0--0-0--0-0--0-0--0-0-|-0-0-0-0-0-|
2| 4||---------------------|-----------------||---------------------|-----------------||---------------------|-----------------||-10h12-10h12-10h12-0-|-3-0-0-4-0-0-3h4-||-10h12-10h12-10h12-0-|-3-0-0-4-0-0-3h4-||-10h12-10h12-10h12-0-|-3-0-0-4-0-0-3h4-|
Chorus
|----------------------------||----------------------------||----------------------------||-0--3p0-3h5-6-0-0-3p0-3h5-6-||-0--3p0-3h5-6-0-0-3p0-3h5-6-||-0--3p0-3h5-6-0-0-3p0-3h5-6-| Play x 4
1||-------------------------------------------------------|-----------||-------------------------------------------------------|-----------||-------------------------------------------------------|-----------||-0-0--0-0--0-0--0-0--0-0--0-0--0-0--0-0--0-0--0-0--0-0-|-0-0-0-0-0-||-0-0--0-0--0-0--0-0--0-0--0-0--0-0--0-0--0-0--0-0--0-0-|-0-0-0-0-0-||-0-0--0-0--0-0--0-0--0-0--0-0--0-0--0-0--0-0--0-0--0-0-|-0-0-0-0-0-|
| Guitar 1|-------------------------------------------------------|-----------||-12-12-12-12-12-12-12-12-12-12-12-12-12-12-12-12-12-12-|-12-12-12-0||-12-12-12-12-12-12-12-12-12-12-12-12-12-12-12-12-12-12-|-12-12-12-0||-------------------------------------------------------|----------0||-10-10-10-10-10-10-10-10-10-10-10-10-10-10-10-10-10-10-|-10-10-10--||-//-//-//-//-//-//-//-//-//-//-//-//-//-//-//-//-//-//-|-//-//-//--| Guitar 2
2||----------------------||----------------------||----------------------||-7-0-0-8-0-0-8h9-0--7-||-7-0-0-8-0-0-8h9-0--7-||-7-0-0-8-0-0-8h9-0--7-|
| Guitar 1|----------------------||-15~~-----------------||-15~~-----------------||-12~~-----------------||-13~~-----------------||----------------------| Guitar 2
|----------------------------||----------------------------||----------------------------||-0--3p0-3h5-6-0-0-3p0-3h5-6-||-0--3p0-3h5-6-0-0-3p0-3h5-6-||-0--3p0-3h5-6-0-0-3p0-3h5-6-| Play x 4
Middle 8
|--------------------------------|-----------------------------------||--------------------------------|-----------------------------------||--------------------------------|-----------------------------------||-0--0-10-10-10-9--9-9-0-3-0-3h5-|-0-3p0-3-0-3p0-3-0-3p0-3-0-3-0-3h5-||-0--0-10-10-10-9--9-9-0-3-0-3h5-|-0-3p0-3-0-3p0-3-0-3p0-3-0-3-0-3h5-||-0--0-10-10-10-9--9-9-0-3-0-3h5-|-0-3p0-3-0-3p0-3-0-3p0-3-0-3-0-3h5-| Play x 6 | Play x 4
Outro
|--------------------------------|-----||--------------------------------|-0~~-||--------------------------------|-0~~-||-0--0-10-10-10-9--9-9-0-3-0-3h5-|-6~~-||-0--0-10-10-10-9--9-9-0-3-0-3h5-|-6~~-||-0--0-10-10-10-9--9-9-0-3-0-3h5-|-6~~-|
| Guitar 1 Play x 12 ||--------------------------------|-----||-15~~---------------------------|-----||-15~~---------------------------|-----||-12~~---------------------------|-----||-13~~---------------------------|-----||--------------------------------|-----| Guitar 2 (enters 3 time)
And That's It Contact me if you have any comments about this tab.
Tap to rate this tab
 
# A B C D E F G H I J K L M N O P Q R S T U V W X Y Z