Clones tab with lyrics by Hidden Agenda - Easy chords and tabs for guitar

Hidden Agenda – Clones tab

clones
by hidden agenda
album: i wouldn't mind if you died too soon


|---------------------------||---------------------------||---------------------------||--2---2-2---2---2-2--------||--2---2-2---2---2-2---- ---||--0---0-0---0---0-0--------|
|-------------------------||-------------------------||-------------------------| x8|-------------------------||-6-3-6-3-6-3-5-3-5-3-5-3-||-------------------------|
|-------------------------||-------------------------||-------------------------| x4|-8-5-8-5-8-5-7-5-7-5-7-5-||-------------------------||-------------------------|
Chorus
|------------------------||------------------------||-------00-00------------||-66-88-22-22-66-88-22-6-| x2|-66-88-33-33-66-88-33-6-||-44-66-------44-66----4-|
|-------------------------||-------------------------||-------------------------||-------------------------| x2|-6-3-6-3-6-3-5-3-5-3-5-3-||-------------------------|
|-------------------------||-------------------------||-------------------------| X2|-8-5-8-5-8-5-7-5-7-5-7-5-||-------------------------||-------------------------|
Chorus
Shame, shame......|-------------------------||-------------------------||-------------------------| X4|-------------------------||-6-3-6-3-6-3-5-3-5-3-5-3-||-------------------------|
everyone's the same
|-----------------------||-----------------------||------------8888-------||-4444-4444--8888--8888-||-4444-4444--6666--8888-||-2222-2222--------6666-|
|-----------------------||-----------------------||------------8888-------||-4444-4444--8888--6666-||-4444-4444--6666--6666-||-2222-2222--------4444-|
|-----------------------||-----------------------||-8888-8888-6666--------||-8888-8888-6666-6666---||-6666-6666-4444-6666---||----------------4444---|
|--------------------------||--------------------------||--------------------------| X6|--------------------------||-6-3-6-3-6-3-5-3-5-3-5-3--||--------------------------|
|--------------------------||--------------------------||--------------------------| X4|-8-5-8-5-8-5-7-5-7-5-7-5--||--------------------------||--------------------------|
Chorus Everyone's the same x2
|-------------------------||-------------------------||-------------------------| X2|-------------------------||-6-3-6-3-6-3-5-3-5-3-5-3-||-------------------------|
Interlude - same as intro only the notes are played once, twice, twice, once. Then palm mute this to the rhythm
|-------||-------||--0----||--2----||--3----||-------|
|-------------------------||-------------------------||-------------------------||-------------------------| x2|-6-3-6-3-6-3-5-3-5-3-5-3-||-------------------------|
|-------------------------||-------------------------||-------------------------| X2|-8-5-8-5-8-5-7-5-7-5-7-5-||-------------------------||-------------------------|
Chorus Everyone's the same x2
|-------------------------||-------------------------||-------------------------||-------------------------| x4|-6-3-6-3-6-3-5-3-5-3-5-3-||-------------------------|
Please rate this tab:
x1.0