Hillsong United - Best Friend tab

* this is my first tab but i am sure it is at least 99% correct so enjoy


Intro

e|---------------------------|B|---------------------------|G|--5-5-55-55-5--------------|D|--5-5-55-55-5-5-3-3-3-33-5-|A|--3-3-33-33-3-5-3-3-3-33-5-|E|--------------3-1-1-1-11-3-| (x4)
Verse
|------------------||------------------||--55--------------||--55-5555-33-5555-||--33-5555-33-5555-||-----3333-11-3333-|(x2)
Third time play this
|---------------|------------------------||---------------|------------------------||---------------|------------------------||--7~---5~---3~-|3-3-3-3-3-3-3-3-3-3-3-3-||-7~---5~---3~--|3-3-3-3-3-3-3-3-3-3-3-3-||5~---3~---1~---|1-1-1-1-1-1-1-1-1-1-1-1-|
Play intro riff again
|---------------------------||---------------------------||--5-5-55-55-5--------------||--5-5-55-55-5-5-3-3-3-33-5-||--3-3-33-33-3-5-3-3-3-33-5-||--------------3-1-1-1-11-3-| (x2)
Verse 2
|------------------||------------------||--55--------------||--55-5555-33-5555-||--33-5555-33-5555-||-----3333-11-3333-|(x2)
|---------------|------------------------||---------------|------------------------||---------------|------------------------||--7~---5~---3~-|3-3-3-3-3-3-3-3-3-3-3-3-||-7~---5~---3~--|3-3-3-3-3-3-3-3-3-3-3-3-||5~---3~---1~---|1-1-1-1-1-1-1-1-1-1-1-1-|
Chorus
|--------------------------------|----------------------------||--------------------------------|----------------------------||5-5-5-5-5-5-5-5-----------------|----------------------------||5-5-5-5-5-5-5-5-5-5-5-5-5-5-5-5-|7-7-7-7-7-7-7-3-3-3-3-3-3-3-||3-3-3-3-3-3-3-3-5-5-5-5-5-5-5-5-|7-7-7-7-7-7-7-3-3-3-3-3-3-3-||----------------3-3-3-3-3-3-3-3-|5-5-5-5-5-5-5-1-1-1-1-1-1-1-| (x2)
Play intro riff again
|---------------------------||---------------------------||--5-5-55-55-5--------------||--5-5-55-55-5-5-3-3-3-33-5-||--3-3-33-33-3-5-3-3-3-33-5-||--------------3-1-1-1-11-3-| (x2)
Verse 3
|------------------||------------------||--55--------------||--55-5555-33-5555-||--33-5555-33-5555-||-----3333-11-3333-|(x2)
|---------------|------------------------||---------------|------------------------||---------------|------------------------||--7~---5~---3~-|3-3-3-3-3-3-3-3-3-3-3-3-||-7~---5~---3~--|3-3-3-3-3-3-3-3-3-3-3-3-||5~---3~---1~---|1-1-1-1-1-1-1-1-1-1-1-1-|
Chorus
|--------------------------------|----------------------------||--------------------------------|----------------------------||5-5-5-5-5-5-5-5-----------------|----------------------------||5-5-5-5-5-5-5-5-5-5-5-5-5-5-5-5-|7-7-7-7-7-7-7-3-3-3-3-3-3-3-||3-3-3-3-3-3-3-3-5-5-5-5-5-5-5-5-|7-7-7-7-7-7-7-3-3-3-3-3-3-3-||----------------3-3-3-3-3-3-3-3-|5-5-5-5-5-5-5-1-1-1-1-1-1-1-| (x4)
Bridge
|------------||------------||5~----------||5~-7~-5~-3~-||3~-7~-5~-3~-||---5~-3~-1~-| (x8)
Chorus
|--------------------------------|--------------------------------| |--------------------------------|--------------------------------| |5-5-5-5-5-5-5-5-----------------|--------------------------------| |5-5-5-5-5-5-5-5-5-5-5-5-5-5-5-5-|7-7-7-7-7-7-7-5-3-3-3-3-3-3-3-3-| |3-3-3-3-3-3-3-3-5-5-5-5-5-5-5-5-|7-7-7-7-7-7-7-5-3-3-3-3-3-3-3-3-| |----------------3-3-3-3-3-3-3-3-|5-5-5-5-5-5-5-5-1-1-1-1-1-1-1-1-| (x2)PM * * * * * * * * * * * * * * * * * * * * * * * * * * * * * * * *
|--------------------------------|--------------------------------| |--------------------------------|--------------------------------| |5-5-5-5-5-5-5-5-----------------|--------------------------------| |5-5-5-5-5-5-5-5-5-5-5-5-5-5-5-5-|7-7-7-7-7-7-7-7-3-3-3-3-3-3-3-3-| |3-3-3-3-3-3-3-3-5-5-5-5-5-5-5-5-|7-7-7-7-7-7-7-7-3-3-3-3-3-3-3-3-| |----------------3-3-3-3-3-3-3-3-|5-5-5-5-5-5-5-5-1-1-1-1-1-1-1-3-| (x2)
Ending / outro
|--------------------------------|--------------------------------||--------------------------------|--------------------------------||5-5-5-5-5-5-5-5-----------------|--------------------------------||5-5-5-5-5-5-5-5-7-7-7-7-7-7-7-7-|5-5-5-5-5-5-5-5-3-3-3-3-3-3-3-3-||3-3-3-3-3-3-3-3-7-7-7-7-7-7-7-7-|5-5-5-5-5-5-5-5-3-3-3-3-3-3-3-3-||----------------5-5-5-5-5-5-5-5-|3-3-3-3-3-3-3-3-1-1-1-1-1-1-1-1-|
|--------------------------------|-------------------||--------------------------------|-------------------||5-5-5-5-5-5-5-5-----------------|-------------------||5-5-5-5-5-5-5-5-7-7-7-7-7-7-7-7-|5-5-5-5-5-5-5-5-3~-||3-3-3-3-3-3-3-3-7-7-7-7-7-7-7-7-|5-5-5-5-5-5-5-5-3~-||----------------5-5-5-5-5-5-5-5-|3-3-3-3-3-3-3-3-1~-|
Tap to rate this tab
 
# A B C D E F G H I J K L M N O P Q R S T U V W X Y Z