Hladno Pivo - Sreca tab

Hladno pivo- Sreća

E||------------------------------|------------------------------|B||--8--8--7h8p7-10--7--8--8-8-8-|--8--8--7h8p7-10--7--8--8-8-8-|G||------------------------------|------------------------------|D||------------------------------|------------------------------|A||------------------------------|------------------------------|E||------------------------------|------------------------------|
------------------------------|------------------------------|--8--8--7h8p7-10--7--8--8-8-8-|--8--8--7h8p7-10--7--8--8-8-8-|------------------------------|------------------------------|------------------------------|------------------------------|------------------------------|------------------------------|------------------------------|------------------------------|
------------------------------|------------------------------|--8--8--7h8p7-10--7--8--8-8-8-|--8--8--7h8p7-10--7--8--8-8-8-|------------------------------|------------------------------|------------------------------|------------------------------|------------------------------|------------------------------|------------------------------|------------------------------|
------------------------------|------------------------------|---|---|---|---|--8--8--7h8p7-10--7--8--8-8-8-|--8--8--7h8p7-10--7--8--8-8-8-|---|---|---|---|------------------------------|------------------------------|---|---|---|---|------------------------------|------------------------------|---|---|---|---|------------------------------|------------------------------|---|---|---|---|------------------------------|------------------------------|---|---|---|---|
------------------------------|------------------------------|---|---|--8--8--7h8p7-10--7--8--8-8-8-|--8--8--7h8p7-10--7--8--8-8-8-|---|---|------------------------------|------------------------------|---|---|------------------------------|------------------------------|---|---|------------------------------|------------------------------|---|---|------------------------------|------------------------------|---|---|
------------------------------|------------------------------|--8--8--7h8p7-10--7--8--8-8-8-|--8--8--7h8p7-10--7--8--8-8-8-|------------------------------|------------------------------|------------------------------|------------------------------|------------------------------|------------------------------|------------------------------|------------------------------|
------------------------------|------------------------------|--8--8--7h8p7-10--7--8--8-8-8-|--8--8--7h8p7-10--7--8--8-8-8-|------------------------------|------------------------------|------------------------------|------------------------------|------------------------------|------------------------------|------------------------------|------------------------------|
----------------------------|-----------------------------|----------------------------|-----------------------------|----------------------------|-----------------------------|----------------------------|-----------------------------|--2-2-2-2-2--------4--5--4--|--5-5-5-5-5--------9--10--9--|--0-0-0-0-0--------2--3--2--|--3-3-3-3-3--------7--8---7--|
----------------------------|-----------------------------|----------------------------|-----------------------------|----------------------------|-----------------------------|----------------------------|-----------------------------|--2-2-2-2-2--------4--5--4--|--5-5-5-5-5--------9--10--9--|--0-0-0-0-0--------2--3--2--|--3-3-3-3-3--------7--8---7--|
-------------------------------|-------------------------------|-------------------------------|-------------------------------|-------------------------------|-------------------------------|-------------------------------|-------------------------------|--2------------2------2--------|--2------------2------2--------|--0--0-0-0-0-0-0--0-0-0--0-0-0-|--0--0-0-0-0-0-0--0-0-0--0-0-0-|
-------------------------------|----------------------------------|-------------------------------|----------------------------------|-------------------------------|----------------------------------|-------------------------------|----------------------------------|--5------------5------5--------|--7----------7-10--10--12--12-12--|--3--3-3-3-3-3-3--3-3-3--3-3-3-|--5--5-5-5-5-5/8---8/--10--10-10--|
--------------------------||---------------------------|--------------------------||---------------------------|--12----17----9----9------||*--12----17----9----9------|--12----17----9--9----9---||*--12----17----9--9----9---|--10----15----7-----------||---10----15----7-----------|--------------------------||---------------------------|
---------------------------||--------------------------|---------------------------||--------------------------|--12----17----9----9------*||*-------------------------|--12----17----9--9----9---*||*-------------------------|--10----15----7------------||---10---9---5---4---5--9--|---------------------------||---8----7---3---2---3--7--|
-----------------------||----------|--------------------------|-----------------------||----------|--------------------------|----------------------*||----------|--12----17----9----9------|----------------------*||----------|--12----17----9--9----9---|--10---9---2-----------||----------|--10----15----7-----------|--8----7---0-----------||----------|--------------------------|
|---------------------------|---------------------------|||---------------------------|---------------------------|||*--12----17----9----9------|--12----17----9----9------*|||*--12----17----9--9----9---|--12----17----9--9----9---*|||---10----15----7-----------|--10----15----7------------|||---------------------------|---------------------------||
--------------------------||-------------------------|--------------------------||-------------------------|--12----17----9----9------||*------------------------|--12----17----9--9----9---||*------------------------|--10----15----7-----------||---7~--5~--2~---7~-5~-2~-|--------------------------||-------------------------|
------------------------------------||------------------------------|------------------------------------||--8--8--7h8p7-10--7--8--8-8-8-|-----------------------------------*||------------------------------|-----------------------------------*||------------------------------|--7~--5~--2----------2----------2---||------------------------------|----------0--0-0-0-0-0--0-0-0-0-0---||------------------------------|
------------------------------|------------------------------|--8--8--7h8p7-10--7--8--8-8-8-|--8--8--7h8p7-10--7--8--8-8-8-|------------------------------|------------------------------|------------------------------|------------------------------|------------------------------|------------------------------|------------------------------|------------------------------|
------------------------------||-----7----7----7----7--|----7----7----7----7--|--8--8--7h8p7-10--7--8--8-8-8-||-----8----8----8----8--|----8----8----8----8--|------------------------------||*----9----9----9----9--|----9----9----9----9--|------------------------------||*----9----9----9----9--|----9----9----9----9--|------------------------------||-----------------------|----------------------|------------------------------||-----------------------|----------------------|
----10----10----10----10--|----5----5----5----5---||-----7----7----7----7--|----12----12----12----12--|----7----7----7----7---||-----8----8----8----8--|----12----12----12----12--|----7----7----7----7--*||*----9----9----9----9--|----12----12----12----12--|----7----7----7----7--*||*----9----9----9----9--|--------------------------|-----------------------||-----------------------|--------------------------|-----------------------||-----------------------|
----7----7----7----7--|----10----10----10----10--|----5----5----5----5---||----8----8----8----8--|----12----12----12----12--|----7----7----7----7---||----9----9----9----9--|----12----12----12----12--|----7----7----7----7--*||----9----9----9----9--|----12----12----12----12--|----7----7----7----7--*||----------------------|--------------------------|-----------------------||----------------------|--------------------------|-----------------------||
----------------------------------------------------------------------|--8-8-8-8-8-8-8-8-10-10-10-10-7-7-7-7-8-8-----------------------------|------------------------------------------9-9-9-9-9-9-9-9-9-9-9-9-9-9-|----------------------------------------------------------------------|----------------------------------------------------------------------|----------------------------------------------------------------------|
-------------------------------------------------------------------|--8-8-8-8-8-8-8-8-10-10-10-10-7-7-7-7-8-8--------------------------|------------------------------------------9-9-9-9-9-9-9-9-9-9-9----|-------------------------------------------------------------------|-------------------------------------------------------------------|-------------------------------------------------------------------|
----------------------------------|----------------------------------|----------------------------------|----------------------------------|----------------------------------|----------------------------------|----------------------------------|----------------------------------|--5-----7-----4-----2-----2---2---|--5-----7-----4-----2-----2---2---|--3-3-3-5-2-2-2-2-0-0-0-0-0-0-0-0-|--3-3-3-5-2-2-2-2-0-0-0-0-0-0-0-0-|
|-------------------------|------------------------------------|||-------------------------|------------------------------------|||*------------------------|-----------------------------------*|||*------------------------|-----------------------------------*|||---7~--5~--2~---7~-5~-2~-|--7~--5~--2----------2----------2---|||-------------------------|----------0--0-0-0-0-0--0-0-0-0-0---||
--------------------------|-------------------------------------||-----------|--------------------------|-------------------------------------||-----------|*-------------------------|------------------------------------*||-----------|*-------------------------|------------------------------------*||-----------|---10---9---5---4---5--9--|--10---9---2----------2----------2---||--10---9---|---8----7---3---2---3--7--|--8----7---0--0-0-0-0-0--0-0-0-0-0---||--8----7---|
-------------------|------------------|------------------------------|-------------------|------------------|--8--8--7h8p7-10--7--8--8-8-8-|-------------------|------------------|------------------------------|-------------------|------------------|------------------------------|--2----------------|------------------|------------------------------|--0----------------|------------------|------------------------------|
------------------------------|---|---|---|---||--8--8--7h8p7-10--7--8--8-8-8-|---|---|---|---||------------------------------|---|---|---|---||------------------------------|---|---|---|---||------------------------------|---|---|---|---||------------------------------|---|---|---|---||
Tap to rate this tab
 
# A B C D E F G H I J K L M N O P Q R S T U V W X Y Z