Hymns Of Eden - All I Need tab

http://www.myspace.com/hymnsofeden

ALL I NEED
As recorded by Hymns Of Eden
	Words and Music by Hymns Of Eden

Gtr I (C G C F A D) - 'Untitled'
Gtr II (C G C F A D) - 'Untitled'
This is a great song by a very unknown Christian band called hymns of Eden.  The guitars 
tuned in drop C (dropped D a full step down).  This song has the sickest riff.

intro Gtr I|----------------------------------|------------------------------------||----------------------------------|------------------------------------||----------------------------------|------------------------------------||-0-0-3-0-0-5-0-0-8-0-0-7-0-0-10-0-|-0-0-3-0-0-5-0-0-8-0-0-7-0-0-10-0---||----------------------------------|------------------------------------||----------------------------------|------------------------------------|
intro 2 (SICKEST RIFF EVER)|-----------------------------|--------------------------------||-----------------------------|--------------------------------||-----------------------------|--------------------------------||-----------------------------|--------------------------------||-0-0-0-x-0--------15-------8-|-(8)-0-0-x-0--------15-------10-||-0-0-0-x-0--12-15----15-12-8-|-(8)-0-0-x-0--12-15----15-12-10-|
|--------------------------------|------------------------------------||--------------------------------|------------------------------------||--------------------------------|------------------------------------||--------------------------------|------------------------12-12-12----||-(10)-8-8-x-8--------15-------8-|-(8)-8-8-8-8-8s10-10-10-12-12-12----||-(10)-8-8-x-8--12-15----15-12-8-|-(8)-8-8-8-8-8s10-10-10-12-12-12----|
|-----------------------------|--------------------------------||-----------------------------|--------------------------------||-----------------------------|--------------------------------||-----------------------------|--------------------------------||-0-0-0-x-0--------15-------8-|-(8)-0-0-x-0--------15-------10-||-0-0-0-x-0--12-15----15-12-8-|-(8)-0-0-x-0--12-15----15-12-10-|
|--------------------------------|--------------------------------||--------------------------------|--------------------------------||--------------------------------|--------------------------------||------------------------------8-|-(8)----------------------------||-(10)-8-8-x-8--------15-------8-|-(8)-8-8-8-8--------------------||-(10)-8-8-x-8--12-15----15-12-8-|-(8)-8-8-8-8-8-0-0-7-0-0-5-3----|
verse\ Guitar 2 is barely audible, so I donít know if I have it 100 % correct.
PM-----------| PM-----------------------------------||------------------------------------|---------------------------------------||------------------------------------|---------------------------------------||------------------------------------|---------------------------------------||------------------------------------|-----------------------10--------------||--0-----0------0--------------------|--0-----0------0-------10--------------||--0-----0------0--------------------|--0-----0------0-------10--------------|
|
| Gtr II|------------------------------------|-------------------------------------||------------------------------------|-------------------------------------||------------------------------------|-------------------------------------||-10-8-7-8-7----8-7-7-8-7-8-7-7----7-|-10-8-7-8-7----8-7-7-8--7-8-7-7----7-||------------10-----------------10---|------------10------------------10---||------------------------------------|-------------------------------------|
PM-----------| PM----------------------------------||------------------------------------|--------------------------------------||------------------------------------|--------------------------------------||------------------------------------|--------------------------------------||------------------------------------|--------------------------------------||--8-----8------8--------------------|--8-----8------8----------------------||--8-----8------8--------------------|--8-----8------8----------------------|
|
|------------------------------------|------------------------------------||------------------------------------|------------------------------------||------------------------------------|------------------------------------||-10-8-7-8-7----8-7-7-8-7-8-7-7----7-|-10-8-7-8-7----8-7-7-8-7-8-7-7----7-||------------10-----------------10---|------------10-----------------10---||------------------------------------|------------------------------------|
|-----------------------------|--------------------------------||-----------------------------|--------------------------------||-----------------------------|--------------------------------||-----------------------------|--------------------------------||-0-0-0-x-0--------15-------8-|-(8)-0-0-x-0--------15-------10-||-0-0-0-x-0--12-15----15-12-8-|-(8)-0-0-x-0--12-15----15-12-10-|
|--------------------------------|-------------------------------||--------------------------------|-------------------------------||--------------------------------|-------------------------------||------------------------------8-|-(8)---------------------------||-(10)-8-8-x-8--------15-------8-|-(8)-8-8-8-8-------------------||-(10)-8-8-x-8--12-15----15-12-8-|-(8)-8-8-8-8-8-0-0-7-0-0-5-3---|
chorusthe guitar is heavily distorted so its kinda hard to tell the notes but this is what is played.|----------------|-------------------||----------------|-------------------||----------------|----------------5--||----------------|----------------5--||-0--0--3-5-0-10-|-(10)\-0--0-3-0-3--||-0--0--3-5-0-10-|-(10)\-0--0-3-0----|
|-----------------|---------------------------||-----------------|---------------------------||-10--10----------|---------------------------||-10--10----------|-----5-5-5-----------------||--8---8--5-3-0-3-|-(3)-3-3-3-----------------||--8---8--5-3-0-3-|-(3)-3-3-3-8-7-0-5-3-0-3-2-|
PM----------------------------||----------------|-------------------------------------||----------------|-------------------------------------||----------------|-------------------------------------||----------------|-------------------------------------||-0--0--3-5-0-10-|-(10)\-0-0-0-0-0-0-x-x-0-0-x-x-0-0---||-0--0--3-5-0-10-|-(10)\-0-0-0-0-0-0-x-x-0-0-x-x-0-0---|
PM|-----------------|----------------------------||-----------------|----------------------------||-10--10----------|----------------------------||-10--10----------|-----5-5-5------------------||--8---8--5-3-0-3-|-(3)-3-3-3------------------||--8---8--5-3-0-3-|-(3)-3-3-3-8-7-0-5-3-0-3-2--|
|-----------------------------|--------------------------------||-----------------------------|--------------------------------||-----------------------------|--------------------------------||-----------------------------|--------------------------------||-0-0-0-x-0--------15-------8-|-(8)-0-0-x-0--------15-------10-||-0-0-0-x-0--12-15----15-12-8-|-(8)-0-0-x-0--12-15----15-12-10-|
|--------------------------------|-------------------------------||--------------------------------|-------------------------------||--------------------------------|-------------------------------||------------------------------8-|-(8)---------------------------||-(10)-8-8-x-8--------15-------8-|-(8)-8-8-8-8-------------------||-(10)-8-8-x-8--12-15----15-12-8-|-(8)-8-8-8-8-8-0-0-7-0-0-5-3---|
Go back and play the verse and the chorus before proceeding guitar solo thingy the backing guitar is the first intro.
|-10----------10---------------------------||-13b15-------13b15------------------------||------------------------------------------||------------------------------------------||------------------------------------------||------------------------------------------|
|-10----------10---------------------------||-13b15-------13b15------------------------||------------------------------------------||------------------------------------------||------------------------------------------||------------------------------------------|
|-10----------10---------------------------||-13b15-------13b15------------------------||------------------------------------------||------------------------------------------||------------------------------------------||------------------------------------------|
|-13------------------13-------------------||-16b18---------------16b18----------------||------------------------------------------||------------------------------------------||------------------------------------------||------------------------------------------|
|------------------------------------------|
|-10----------10---------------------------||-13b15-------13b15------------------------||------------------------------------------||------------------------------------------||------------------------------------------||------------------------------------------|
|-10----------10-----------------------------||-13b15-------13b15--------------------------||--------------------------------------------||--------------------------------------------||--------------------------------------------||--------------------------------------------|
|-13----------13---------------------------||-16b18-------16b18------------------------||------------------------------------------||------------------------------------------||------------------------------------------||------------------------------------------|
|-12------15----------(15)----------------------||-15b17---18b20-------(18)----------------------||-----------------------------------------------||-----------------------------------------------||-----------------------------------------------||-----------------------------------------------|
bridge ~~~~~~~~|------------------|---------------------||--------------6---|---------------------||-----------/9---9-|-(9)-----------------||------------------|---------------------||-0-0-0-x-0--------|-----0-0-x-0-x-10-10-||-0-0-0-x-0--------|-----0-0-x-0-x-10-10-|
~~~~~~~~|------------------|--------------------||--------------6---|--------------------||-----------/9---9-|-(9)----------------||------------------|--------------------||-8-8-8-x-8--------|-----8-8-x-8-x-10-7-||-8-8-8-x-8--------|-----8-8-x-8-x-10-7-|
~~~~~~~~|------------------|---------------------||--------------6---|---------------------||-----------/9---9-|-(9)-----------------||------------------|---------------------||-0-0-0-x-0--------|-----0-0-x-0-x-10-10-||-0-0-0-x-0--------|-----0-0-x-0-x-10-10-|
~~~~~~~~|------------------|---------------------------||--------------6---|---------------------------||-----------/9---9-|-(9)-----------------------||------------------|---------------------------||-8-8-8-x-8--------|-----8-8-x-----------------||-8-8-8-x-8--------|-----8-8-x-8-7-0-5-3-0-3-2-|
go and play the chorus a bunch of times (cause im too lazy to count) and this is the endning.
|-----------------------------|--------------------------------||-----------------------------|--------------------------------||-----------------------------|--------------------------------||-----------------------------|--------------------------------||-0-0-0-x-0--------15-------8-|-(8)-0-0-x-0--------15-------10-||-0-0-0-x-0--12-15----15-12-8-|-(8)-0-0-x-0--12-15----15-12-10-|
|--------------------------------|-------------------------------||--------------------------------|-------------------------------||--------------------------------|-------------------------------||------------------------------8-|-(8)---------------------------||-(10)-8-8-x-8--------15-------8-|-(8)-8-8-8-8-------------------||-(10)-8-8-x-8--12-15----15-12-8-|-(8)-8-8-8-8-8-0-0-7-0-0-5-3---|
|------||------||------||-0----||-0----||-0----|
Tap to rate this tab
 
# A B C D E F G H I J K L M N O P Q R S T U V W X Y Z