Hypocrisy - Elastic Inverted Visions tab

HYPOCRISY

"Elastic Inverted Visions" from the album "Hypocrisy" (1999)

Music: Tagtgren/Hedlund/Szoke  Lyrics: Tagtgren

Transcribed by: Daniel S.A.  e-mail: wolfnorth83@hotmail.com

Any corrections, praises, death-threats or other rants are welcome.


 -Standard tuning- (EADGBE)


  RIFF 1  (guitar 1)  -clean tone- let ring

x5
|---------------------------------------------------------------------------
--||---------------------------------------------------------------------------
--||-----4--4-------------------0-------------4--4--------------------0--------
--||-------------7--------7--------4-------------------7--------7--------4-----
--||--7-------7-----7--5-----7--------7----7--------7-----7--5-----7--------7--
--||-----------------------------------------------------------------------------|
(guitar 2) -enters on 3rd, 5th, 7th and 9th repeat of riff 1-
|-------------| |-------------| |-------------| |------9------| ----> with distortion |------7------| |------0------|
RIFF 2 (guitar 1) x2 |---------------------------------------------------------------------------
--||---------------------------------------------------------------------------
--||-------------------------4---------------------------4---------------------
--||-----9---------7-------5---------9---------7------5------------------------
--||--7-----7---5-----5-----------7-----7---5-----5----------------------------
--||-----------------------------------------------------------------------------|
[--PM-----PM-----PM-----PM-----PM-----PM-----PM----PM--] (guitar 2) x2 |---------------------------------------------------------------------------
--||---------------------------------------------------------------------------
--||---------------------------------------------------------------------------
--||--9--9--9--9--9--9--9--9--9--9--9--9--9--9--9--9--9--9---------------------
--||--7--7--7--7--7--7--7--7--7--7--7--7--7--7--7--7--7--7---------------------
--||-----------------------------------------------------------------------------|
[--PM-----PM-----PM-----PM-----PM-----PM-----PM-----PM--] RIFF 3 (both guitars) -vocals start- x4 |---------------------------------------------------------------------------
--||---------------------------------------------------------------------------
--||---------------------------------------------------------------------------
--||--9-9---12-------------------------------9-9---12--------------------------
--||--7-7---10---10---9-9-9-9-9-9-------7----7-7---10---10---5-5-5-5-5-5-5--5-5
--||--------------8---7-7-7-7-7-7--7~h9------------------8---3-3-3-3-3-3-3--2-2--|
RIFF 4 = (guitar 1) ---> repeat riff 1 (x6) (guitar 2) -from the 3rd to the 6th repeat of riff 1, play the following- |---------------------------------------------------------------------------
--||---------------------------------------------------------------------------
--||---------------------------------------------------------------------------
--||--9--9--9--9--9--9--9--9--9--9--9--9--9--9--9--9--9--9---------------------
--||--7--7--7--7--7--7--7--7--7--7--7--7--7--7--7--7--7--7---------------------
--||-----------------------------------------------------------------------------|
[--PM-----PM-----PM-----PM-----PM-----PM-----PM-----PM--] RIFF 5 (both guitars)
|----------------------------||----------------------------||----------------------------||----------------------------||--5-5-5-5-5-5--5-5-5-5-5-5--||--3-3-3-3-3-3--2-2-2-2-2-2--|
RIFF 6 ----> (both guitars) = repeat riff 3 (x4) RIFF 7 x2 (guitar 1) |---------------------------------------------------------------------------
--||---------------------------------------------------------------------------
--||------------------7--------------------------------------------------------
--||--9-----9------------9--10--9h7--9h7--------10/12~--10~--9~--7~--9h7-------
--||-----7-----7--10----------------------10~----------------------------------
--||-----------------------------------------------------------------------------|
(guitar 2) |---------------------------------------------------------------------------
--||---------------------------------------------------------------------------
--||--9-------------------------7---------5------------------------------------
--||--9-------------------------7---------5----------------------2-------------
--||--7-------------------------5---------3-----3/5~----3~--2~---0-------------
--||-----------------------------------------------------------------------------|
(guitar 1) |---------------------------------------------------------------------------
--||---------------------------------------------------------------------------
--||------------------7--------------------------------------------------------
--||--9-----9------------9--10--9h7--9h7--------10/12~--10~--9~--7~--9h7-------
--||-----7-----7--10----------------------10~----------------------------------
--||-----------------------------------------------------------------------------|
(guitar 2) |---------------------------------------------------------------------------
--||---------------------------------------------------------------------------
--||--9-------------------------7---------5------------------------------------
--||--9-------------------------7---------5-----2------------------------------
--||--7-------------------------5---------3-----3-------2----2---0-------------
--||----------------------------------------------------5----3---2---------------|
RIFF 8 (guitar 1) x1 |---------------------------------------------------------------------------
--||---------------------------------------------------------------------------
--||---9-7-9~--9\5~---7-10-9-10-7~-----9-7-9~-9\5~-----7-5-7~-----9-7-9~-------
--||-7-------------------------------7---------------5----------5--------------
--||---------------------------------------------------------------------------
--||-----------------------------------------------------------------------------|
(guitar 2) x1 |---------------------------------------------------------------------------
--||---------------------------------------------------------------------------
--||------------------7--------4-----------------------------------------------
--||-7---------3------7--------4-----7--------3------5---------2----------5----
--||-7---------3------5--------2-----7--------3------5---------2----------5----
--||-5---------1---------------------5--------1------3---------0----------3------|
RIFF 9 (guitar 1) x1 |---------------------------------------------------------------------------
--||---------------------------------------------------------------------------
--||---9-7-9---9-7-9----10-9-10-9---10-9-10--7-4---4-7---4--9-7---------9-7-9--
--||-7-------7--------7-----------7--------------5-----5--------10-9--5--------
--||---------------------------------------------------------------------------
--||-----------------------------------------------------------------------------|
(guitar 2) |---------------------------------------------------------------------------
--||---------------------------------------------------------------------------
--||---------------------------------------------------------------------------
--||-7----------------3----------------------5--------------2---------5--------
--||-7----------------3----------------------5--------------2---------5--------
--||-5----------------1----------------------3--------------0---------3----------|
RIFF 9 = Solo ---> the rhythm for the solo is riff 3 (x2) -I'll probably tab the fucking thing in the near future- RIFF 10 ----> outro riff = repeat riff 7 x4 and fade-out... That's all folks. This is one killer song! HYPOCRISY RULES! Questions, comments n' shit: e-mail me at: wolfnorth83@hotmail.com
Tap to rate this tab
 
# A B C D E F G H I J K L M N O P Q R S T U V W X Y Z