Human Waste tab with lyrics by I Declare War - Easy chords and tabs for guitar

I Declare War – Human Waste tab

HUMAN WASTE
As recorded by I Declare War
(From the 2011 Album I DECLARE WAR)



Words by Jamie Hanks Music by I Declare War


Gtr I (G# D# G# C# F# A# D#) - 'Chris'
Gtr II (G# D# G# C# F# A# D#) - 'Evan'
Gtr III (G# D# G# C# F# A# D#) - 'Evan'
Gtr IV (G# D# G# C# F# A# D#) - 'Evan'

Q=120 4/4 Gtrs I, II PM| PM| PM--| PM----------|||-------------|-------------|-----------------|----------------|||-------------|-------------|-----------------|----------------|||o------------|-------------|-----------------|----------------|||-------------|-------------|---------8-7-7-4-|----------------|||o------------|-------------|-----------------|----------------|||--2------3-2-|-6-5-----3-2-|-6-5-3-2-6-5-5-2-|-6-5-3-2-1-1-1--|||--3------3-2-|-6-5-----3-2-|-6-5-3-2---------|-6-5-3-2-2-2-2--|
Gtr I PM| PM| PM--| PM----------||------------|-------------|--------------------|-----------------|||------------|-------------|--------------------|-----------------|||------------|-------------|--------------------|----------------o|||------------|-------------|----------8--7--7-4-|-----------------|||------------|-------------|--------------------|----------------o|||-2------3-2-|-6-5-----3-2-|-6-5-3-2--6--5--5-2-|-6-5-3-2-1-1-1---|||-3------3-2-|-6-5-----3-2-|-6-5-3-2------------|-6-5-3-2-2-2-2---||
|
| Gtr II| PM| PM| PM--| PM----------||------------|-------------|--------------------|-----------------|||------------|-------------|--------------------|-----------------|||------------|-------------|--------------------|----------------o|||------------|-------------|---------11-10-10-7-|-----------------|||------------|-------------|--------------------|----------------o|||-2------3-2-|-6-5-----3-2-|-6-5-3-2--9--8--8-5-|-6-5-3-2-1-1-1---|||-3------3-2-|-6-5-----3-2-|-6-5-3-2------------|-6-5-3-2-2-2-2---||
2/4 PM----||--------------|-----||--------------|-----||--------------|-----||--------------|-----||--------------|-----||-1-1-1--------|-----||-2-2-2--------|-----|
|
| PM--||--------------|-----||--------------|-----||--------------|-----||--------------|-----||--------------|-----||-------1-1-1--|-----||-------2-2-2--|-----|
4/4 PM| PM--| PM| PM--| TPTP||------------------|-----------------|||------------------|-----------------|||o-----------------|-----------------|||--------------5-4-|-----------------|||o-----------------|-------------5---|||--3-2-6-5-3-2-3-2-|-3-2-6-5-3-2---7-|||--3-2-6-5-3-2-----|-3-2-6-5-3-2-----|
|
| PM| PM--| PM| PM--| TPTP||------------------|-----------------|||------------------|-----------------|||o-----------------|-----------------|||--------------5-4-|-----------------|||o-----------------|-------------2---|||--3-2-6-5-3-2-3-2-|-3-2-6-5-3-2---4-|||--3-2-6-5-3-2-----|-3-2-6-5-3-2-----|
PM| PM--||-----------------|----------------------|||-----------------|----------------------|||-----------------|---------------------o|||-------------8-7-|-7--8--8--7--7-4-4-3--|||-----------------|---------------------o|||-3-2-6-5-3-2-6-5-|-5--6--6--5--5-2-2-1--|||-3-2-6-5-3-2-----|----------------------||
|
| PM| PM--||-----------------|----------------------|||-----------------|----------------------|||-----------------|---------------------o|||-------------8-7-|-7-11-11-10-10-8-8-7--|||-----------------|---------------------o|||-3-2-6-5-3-2-6-5-|-5--9--9--8--8-6-6-5--|||-3-2-6-5-3-2-----|----------------------||
||-----------------------|-----------------------------|||-----------------------|-----------------------------|||o----------------------|-----------------------------|||-----------------------|-----------------------------|||o----------------------|-----------------------------|||--0----0-(0)-0-(0)-0-0-|-0-(0)-0-(0)-0-0-(0)-0-(0)-0-|||--1----1-(1)-1-(1)-1-1-|-1-(1)-1-(1)-1-1-(1)-1-(1)-1-|
|
||-----------------------|-----------------------------|||-----------------------|-----------------------------|||o----------------------|-----------------------------|||-----------------------|-----------------------------|||o----------------------|-----------------------------|||--0----0-(0)-0-(0)-0-0-|-0-(0)-0-(0)-0-0-(0)-0-(0)-0-|||--1----1-(1)-1-(1)-1-1-|-1-(1)-1-(1)-1-1-(1)-1-(1)-1-|
|----------------------|---------------------------|||----------------------|---------------------------|||----------------------|--------------------------o|||----------------------|---------------------------|||----------------------|--------------------------o|||-0----0-(0)-0-(0)-0-0-|-0-(0)-0-(0)-0-8-----------|||-1----1-(1)-1-(1)-1-1-|-1-(1)-1-(1)-1---9-(9)\----||
|
|----------------------|---------------------------|||----------------------|---------------------------|||----------------------|--------------------------o|||----------------------|---------------------------|||----------------------|--------------------------o|||-0----0-(0)-0-(0)-0-0-|-0-(0)-0-(0)-0-5-----------|||-1----1-(1)-1-(1)-1-1-|-1-(1)-1-(1)-1---6-(6)\----||
Gtrs I, II PM-----------------------------------|||------------|----------|-------------|------------||||------------|----------|-------------|------------||||o-----------|----------|-------------|------0----o||||------------|----------|-------------|------0-----||||o-----------|----------|-------------|------0----o||||--0-------0-|-0--------|-0-------0-0-|-0----0-----||||--0-------0-|-0--------|-0-------0-0-|-0----1-----||
Gtrs I, II PM----------------------------------------------|-------------------------------------------------||-------------------------------------------------||-------------------------------------------------||-------------------------------------------------||-------------------------------------------------||--0-----------------------------------------0----||--0-----------------------------------------0----|
|
| Gtr III| T T T T T T T T|-------------------------------------------------||-------------------------------------------------||-15p10-------------------13p10-------12p10-------||-------14p11-17p11-14p11-------14p11-------14p11-||-------------------------------------------------||-------------------------------------------------||-------------------------------------------------|
-------------------------||-------------------------------------------------||-------------------------------------------------||-------------------------------------------------||-------------------------------------------------||-------------------------------------------------||--0----------------------------------------------||--0----------------------------------------------|
|
| T T T T T T T T|-------------------------------------------------||-------------------------------------------------||-15p10-------------------13p10-------12p10-------||-------14p11-17p11-14p11-------14p11-------14p11-||-------------------------------------------------||-------------------------------------------------||-------------------------------------------------|
PM----------------------------------------------|-------------------------------------------------||-------------------------------------------------||-------------------------------------------------||-------------------------------------------------||-------------------------------------------------||--0-----------------------------------------0--0-||--0-----------------------------------------0--0-|
|
| T T T T T T T T|-------------------------------------------------||-------------------------------------------------||-15p10-------------------13p10-------12p10-------||-------14p11-17p11-14p11-------14p11-------14p11-||-------------------------------------------------||-------------------------------------------------||-------------------------------------------------|
-||------------------------------||------------------------------||-------------------------0----||-------------------------0----||-------------------------0----||--0----------------------0----||--0----------------------1----|
|
| T T T T|------------------------------||------------------------------||-15p10------------------------||-------14p11-17p11-14p11------||------------------------------||------------------------------||------------------------------|
Gtrs I, II PM----------------------------------------------|-------------------------------------------------||-------------------------------------------------||-------------------------------------------------||-------------------------------------------------||-------------------------------------------------||--0-----------------------------------------0----||--0-----------------------------------------0----|
|
| Gtr III| T T T T T T T T|-------------------------------------------------||-------------------------------------------------||-15p10-------------------13p10-------12p10-------||-------14p11-17p11-14p11-------14p11-------14p11-||-------------------------------------------------||-------------------------------------------------||-------------------------------------------------|
|
| Gtr IV| T T T T T T T T T|-------------------------------------------------||-------------------------------------------------||-18p13-------------------16p13-------15p13-------||-------17p14-21p14-17p14-------17p14-------17p14-||-------------------------------------------------||-------------------------------------------------||-------------------------------------------------|
-------------------------||-------------------------------------------------||-------------------------------------------------||-------------------------------------------------||-------------------------------------------------||-------------------------------------------------||--0----------------------------------------------||--0----------------------------------------------|
|
| T T T T T T T T|-------------------------------------------------||-------------------------------------------------||-15p10-------------------13p10-------12p10-------||-------14p11-17p11-14p11-------14p11-------14p11-||-------------------------------------------------||-------------------------------------------------||-------------------------------------------------|
|
| T T T T T T T T T|-------------------------------------------------||-------------------------------------------------||-18p13-------------------16p13-------15p13-------||-------17p14-21p14-17p14-------17p14-------17p14-||-------------------------------------------------||-------------------------------------------------||-------------------------------------------------|
PM----------------------------------------------|-------------------------------------------------||-------------------------------------------------||-------------------------------------------------||-------------------------------------------------||-------------------------------------------------||--0-----------------------------------------0--0-||--0-----------------------------------------0--0-|
|
| T T T T T T T T|-------------------------------------------------||-------------------------------------------------||-15p10-------------------13p10-------12p10-------||-------14p11-17p11-14p11-------14p11-------14p11-||-------------------------------------------------||-------------------------------------------------||-------------------------------------------------|
|
| T T T T T T T T T|-------------------------------------------------||-------------------------------------------------||-18p13-------------------16p13-------15p13-------||-------17p14-21p14-17p14-------17p14-------17p14-||-------------------------------------------------||-------------------------------------------------||-------------------------------------------------|
-||------------------------------||------------------------------||-------------------------0----||-------------------------0----||-------------------------0----||--0----------------------0----||--0----------------------1----|
|
| T T T T|------------------------------||------------------------------||-15p10------------------------||-------14p11-17p11-14p11------||------------------------------||------------------------------||------------------------------|
|
| T T T T T|------------------------------||------------------------------||-18p13------------------------||-------17p14-21p14-17p14------||------------------------------||------------------------------||------------------------------|
Gtr I PM| PM--| PM| PM--| TPTP PM| PM--||-----------------|-----------------|-----------------|---------------------||-----------------|-----------------|-----------------|---------------------||-----------------|-----------------|-----------------|---------------------||-------------5-4-|-----------------|-------------8-7-|-7--8--8--7--7-4-4-3-||-----------------|-------------5---|-----------------|---------------------||-3-2-6-5-3-2-3-2-|-3-2-6-5-3-2---7-|-3-2-6-5-3-2-6-5-|-5--6--6--5--5-2-2-1-||-3-2-6-5-3-2-----|-3-2-6-5-3-2-----|-3-2-6-5-3-2-----|---------------------|
|
| Gtr II| PM| PM--| PM| PM--| TPTP PM| PM--||-----------------|-----------------|-----------------|---------------------||-----------------|-----------------|-----------------|---------------------||-----------------|-----------------|-----------------|---------------------||-------------5-4-|-----------------|-------------8-7-|-7-11-11-10-10-8-8-7-||-----------------|-------------2---|-----------------|---------------------||-3-2-6-5-3-2-3-2-|-3-2-6-5-3-2---4-|-3-2-6-5-3-2-6-5-|-5--9--9--8--8-6-6-5-||-3-2-6-5-3-2-----|-3-2-6-5-3-2-----|-3-2-6-5-3-2-----|---------------------|
TPTPTPTPTPTPTPTP TPTPTPTPTPTPTPTP TPTPTPTPTPTPTPTP TPTPTPTPTPTPTPTP|-----------------|-----------------|-----------------|-----------------||-----------------|-----------------|-----------------|-----------------||-----------------|-----------------|-----------------|-----------------||-----------------|-----------------|-----------------|-----------------||-----------------|-------------5---|-----------------|-----------------||-------------3-2-|---------------7-|-------------6-5-|-5-6-6-5-5-2-2-1-||-3-2-6-5-3-2-----|-3-2-6-5-3-2-----|-3-2-6-5-3-2-----|-----------------|
|
| TPTPTPTPTPTPTPTP TPTPTPTPTPTPTPTP TPTPTPTPTPTPTPTP TPTPTPTPTPTPTPTP|-----------------|-----------------|-----------------|-----------------||-----------------|-----------------|-----------------|-----------------||-----------------|-----------------|-----------------|-----------------||-----------------|-----------------|-----------------|-----------------||-----------------|-------------5---|-----------------|-----------------||-------------3-2-|---------------7-|-------------6-5-|-5-9-9-8-8-6-6-5-||-3-2-6-5-3-2-----|-3-2-6-5-3-2-----|-3-2-6-5-3-2-----|-----------------|
Gtrs I, II TPTP TP TPTPTPTP TP TP TP TP TPTP TP TPTPTPTP TP TP TP TP|------------------|-------------|------------------|-------------||------------------|-------------|------------------|-------------||------------------|-------------|------------------|-------------||------------------|-------------|------------------|-------------||-2----------------|-------------|-2----------------|-------------||---4-(4)-3-4-3-1--|-1--0--------|---4-(4)-3-4-3-1--|-1--0--------||------------------|-------4--3--|------------------|-------4--3--|
Gtr I TPTP TP TPTPTPTP TP TP TP TP TPTP TP|------------------|-------------|-------------------|---------------||------------------|-------------|-------------------|---------------||------------------|-------------|-------------------|---------------||------------------|-------------|---------5-6--(6)--|-(6)-----------||-2----------------|-------------|-2-----------------|---------------||---4-(4)-3-4-3-1--|-1--0--------|---4-(4)-3-4--(4)--|-(4)--8--7--4--||------------------|-------4--3--|-------------------|------8--7--4--|
|
| Gtr II| TPTP TP TPTPTPTP TP TP TP TP TPTP TP|------------------|-------------|-------------------|---------------||------------------|-------------|-------------------|---------------||------------------|-------------|-------------------|---------------||------------------|-------------|---------8-9--(9)--|-(9)-----------||-2----------------|-------------|-2-----------------|---------------||---4-(4)-3-4-3-1--|-1--0--------|---4-(4)-6-7--(7)--|-(7)--8--7--4--||------------------|-------4--3--|-------------------|------8--7--4--|
Gtrs I, II|----------|----------------|----------|----------------||----------|----------------|----------|----------------||----------|----------------|----------|----------------||----------|----------------|----------|----------------||----------|----------------|----------|----------------||-3--------|-(3)----(3)--4--|-3--------|-(3)----(3)--4--||-3--------|-(3)----(3)--4--|-3--------|-(3)----(3)--4--|
Gtr I PM PM------------------------------------------------||-----------------|-------------------|-----------------|---------------||-----------------|-------------------|-----------------|---------------||-----------------|-------------------|-----------------|---------------||-----------------|-------------------|-----------------|---------------||-----------------|-------------------|-----------------|---------------||-2---------------|-------------------|-----------------|-----------2---||-3---------------|-------------------|-----------------|-----------3---|
|
| Gtr II| PM------------------------------------------------------------------||-----------------|-------------------|-----------------|---------------||-----------------|-------------------|-----------------|---------------||-----------------|-------------------|-----------------|---------------||-----------------|-------------------|-----------------|---------------||-----------------|-------------------|-----------------|---------------||-2-2-2-2-2-2-2-2-|-2-2-2-2-2-2-2-2-2-|-2-2-2-2-2-2-2-2-|-2-2-2-2---2---||-3-3-3-3-3-3-3-3-|-3-3-3-3-3-3-3-3-3-|-3-3-3-3-3-3-3-3-|-3-3-3-3---3---|
Gtrs I, II PM-------------------------------------||---------------|------------------------|||---------------|------------------------|||o--------------|------------------------|||---------------|------------------------|||o--------------|------------------------|||--0----0-0-0-0-|-(0)----0-0-0-0-0-0-(0)-|||--1----1-1-1-1-|-(1)----1-1-1-1-1-1-(1)-|
----------------------------------||--------------|-----------------------|||--------------|-----------------------|||--------------|----------------------o|||--------------|-----------------------|||--------------|----------------------o|||-0----0-0-0-0-|-(0)----0-0-0-0-0------|||-1----1-1-1-1-|-(1)----1-1-1-1-1------||
||---------------|------------------|--------------|-----------||||---------------|------------------|--------------|-----------||||o--------------|------------------|--------------|----------o||||---------------|------------------|--------------|-----------||||o--------------|------------------|--------------|----------o||||---------------|------------------|--------------|-----------||||--1----1-1-1-1-|-----1-1-1-1-1-1--|-1----1-1-1-1-|-----0-----||
Gtr I PM| PM| PM--| PM| PM--| PM| PM--||-----------------|-----------------|-----------------|---------------||-----------------|-----------------|-----------------|---------------||-----------------|-----------------|-----------------|---------------||-----------------|-------------5-4-|-------------5-4-|---------------||-----------------|-----------------|-----------------|---------------||-3-2-------------|-3-2-6-5-3-2-3-2-|-3-2-6-5-3-2-3-2-|-3-2-6-5-2-2---||-3-2-------------|-3-2-6-5-3-2-----|-3-2-6-5-3-2-----|-3-2-6-5-3-3---|
|
| Gtr II| PM| PM--| PM| PM| PM--| PM| PM--||-----------------|-----------------|-----------------|---------------||-----------------|-----------------|-----------------|---------------||-----------------|-----------------|-----------------|---------------||-------------5-4-|-----------------|-------------5-4-|---------------||-----------------|-----------------|-----------------|---------------||-3-2-6-5-3-2-3-2-|-3-2-------------|-3-2-6-5-3-2-3-2-|-3-2-6-5-2-2---||-3-2-6-5-3-2-----|-3-2-------------|-3-2-6-5-3-2-----|-3-2-6-5-3-3---|
PM| PM--| PM| PM--| TPTP||------------------|-----------------|||------------------|-----------------|||o-----------------|-----------------|||--------------5-4-|-----------------|||o-----------------|-------------5---|||--3-2-6-5-3-2-3-2-|-3-2-6-5-3-2---7-|||--3-2-6-5-3-2-----|-3-2-6-5-3-2-----|
|
| PM| PM--| PM| PM--| TPTP||------------------|-----------------|||------------------|-----------------|||o-----------------|-----------------|||--------------5-4-|-----------------|||o-----------------|-------------2---|||--3-2-6-5-3-2-3-2-|-3-2-6-5-3-2---4-|||--3-2-6-5-3-2-----|-3-2-6-5-3-2-----|
PM| PM--||-----------------|-----------------------|||-----------------|-----------------------|||-----------------|----------------------o|||-------------8-7-|-7--8--8--7--7-4-4-3---|||-----------------|----------------------o|||-3-2-6-5-3-2-6-5-|-5--6--6--5--5-2-2-1---|||-3-2-6-5-3-2-----|-----------------------||
|
| PM| PM--||-----------------|-----------------------|||-----------------|-----------------------|||-----------------|----------------------o|||-------------8-7-|-7-11-11-10-10-8-8-7---|||-----------------|----------------------o|||-3-2-6-5-3-2-6-5-|-5--9--9--8--8-6-6-5---|||-3-2-6-5-3-2-----|-----------------------||
Gtrs I, II PM-----------------------------------|||------------|----------|-------------|------------||||------------|----------|-------------|------------||||o-----------|----------|-------------|------0----o||||------------|----------|-------------|------0-----||||o-----------|----------|-------------|------0----o||||--0-------0-|-0--------|-0-------0-0-|-0----0-----||||--0-------0-|-0--------|-0-------0-0-|-0----1-----||
Gtrs I, II PM----------------------------------------------|-------------------------------------------------||-------------------------------------------------||-------------------------------------------------||-------------------------------------------------||-------------------------------------------------||--0-----------------------------------------0----||--0-----------------------------------------0----|
|
| Gtr III| T T T T T T T T|-------------------------------------------------||-------------------------------------------------||-15p10-------------------13p10-------12p10-------||-------14p11-17p11-14p11-------14p11-------14p11-||-------------------------------------------------||-------------------------------------------------||-------------------------------------------------|
-------------------------||-------------------------------------------------||-------------------------------------------------||-------------------------------------------------||-------------------------------------------------||-------------------------------------------------||--0----------------------------------------------||--0----------------------------------------------|
|
| T T T T T T T T|-------------------------------------------------||-------------------------------------------------||-15p10-------------------13p10-------12p10-------||-------14p11-17p11-14p11-------14p11-------14p11-||-------------------------------------------------||-------------------------------------------------||-------------------------------------------------|
PM----------------------------------------------|-------------------------------------------------||-------------------------------------------------||-------------------------------------------------||-------------------------------------------------||-------------------------------------------------||--0-----------------------------------------0--0-||--0-----------------------------------------0--0-|
|
| T T T T T T T T|-------------------------------------------------||-------------------------------------------------||-15p10-------------------13p10-------12p10-------||-------14p11-17p11-14p11-------14p11-------14p11-||-------------------------------------------------||-------------------------------------------------||-------------------------------------------------|
-||------------------------------||------------------------------||-------------------------0----||-------------------------0----||-------------------------0----||--0----------------------0----||--0----------------------1----|
|
| T T T T|------------------------------||------------------------------||-15p10------------------------||-------14p11-17p11-14p11------||------------------------------||------------------------------||------------------------------|
Gtrs I, II PM----------------------------------------------||--------------------------------------------------|||--------------------------------------------------|||o-------------------------------------------------|||--------------------------------------------------|||o-------------------------------------------------|||---0-----------------------------------------0----|||---0-----------------------------------------0----|
|
| Gtr III| T T T T T T T T||--------------------------------------------------|||--------------------------------------------------|||o-15p10-------------------13p10-------12p10-------|||--------14p11-17p11-14p11-------14p11-------14p11-|||o-------------------------------------------------|||--------------------------------------------------|||--------------------------------------------------|
|
| Gtr IV| T T T T T T T T T||--------------------------------------------------|||--------------------------------------------------|||o-18p13-------------------16p13-------15p13-------|||--------17p14-21p14-17p14-------17p14-------17p14-|||o-------------------------------------------------|||--------------------------------------------------|||--------------------------------------------------|
-------------------------||--------------------------------------------------||--------------------------------------------------||--------------------------------------------------||--------------------------------------------------||--------------------------------------------------||--0-----------------------------------------------||--0-----------------------------------------------|
|
| T T T T T T T T|--------------------------------------------------||--------------------------------------------------||-15p10-------------------13p10-------12p10--------||-------14p11-17p11-14p11-------14p11-------14p11--||--------------------------------------------------||--------------------------------------------------||--------------------------------------------------|
|
| T T T T T T T T T|--------------------------------------------------||--------------------------------------------------||-18p13-------------------16p13-------15p13--------||-------17p14-21p14-17p14-------17p14-------17p14--||--------------------------------------------------||--------------------------------------------------||--------------------------------------------------|
PM----------------------------------------------|-------------------------------------------------||-------------------------------------------------||-------------------------------------------------||-------------------------------------------------||-------------------------------------------------||--0-----------------------------------------0--0-||--0-----------------------------------------0--0-|
|
| T T T T T T T T|-------------------------------------------------||-------------------------------------------------||-15p10-------------------13p10-------12p10-------||-------14p11-17p11-14p11-------14p11-------14p11-||-------------------------------------------------||-------------------------------------------------||-------------------------------------------------|
|
| T T T T T T T T T|-------------------------------------------------||-------------------------------------------------||-18p13-------------------16p13-------15p13-------||-------17p14-21p14-17p14-------17p14-------17p14-||-------------------------------------------------||-------------------------------------------------||-------------------------------------------------|
-| 3x|-------------------------------|||-------------------------------|||-------------------------0----o|||-------------------------0-----|||-------------------------0----o|||--0----------------------0-----|||--0----------------------1-----||
|
| T T T T| 3x|-------------------------------|||-------------------------------|||-15p10------------------------o|||-------14p11-17p11-14p11-------|||------------------------------o|||-------------------------------|||-------------------------------||
|
| T T T T T| 3x|-------------------------------|||-------------------------------|||-18p13------------------------o|||-------17p14-21p14-17p14-------|||------------------------------o|||-------------------------------|||-------------------------------||
Tablature Legend ---------------- h - hammer-on p - pull-off b - bend pb - pre-bend r - bend release (if no number after the r, then release immediately) /\ - slide into or out of (from/to "nowhere") s - legato slide S - shift slide - natural harmonic [n] - artificial harmonic n(n) - tapped harmonic ~ - vibrato tr - trill T - tap TP - trem. picking PM - palm muting \n/ - tremolo bar dip; n = amount to dip \n - tremolo bar down n/ - tremolo bar up /n\ - tremolo bar inverted dip = - hold bend; also acts as connecting device for hammers/pulls <> - volume swell (louder/softer) x - on rhythm slash represents muted slash o - on rhythm slash represents single note slash Misc Legend ----------- | - bar || - double bar ||o - repeat start o|| - repeat end *| - double bar (ending) : - bar (freetime) $ - Segno & - Coda Tempo markers - = BPM(8/16=s8/s16), where s8 = swing 8ths, s16 = swing 16ths ** Generated using Power Tab Editor by Brad Larsen: The Official Power Tab Web Site
Please rate this tab:
x1.0