Friend tab with lyrics by In Flames - Easy chords and tabs for guitar

In Flames – Friend tab

Tuning: Drop A# (A# F A# D# G C)

Intro


gtr.1|-------------------------------------------------------------------------------||-------------------------------------------------------------------------------||-------------------------------------------------------------------------------||-------------------------------------------------------------------------------||-0-0-0--0-0-0--0-0-0--0-0-0--0-0-0--0-0-0--0-0-0--0-0-0--0-0-0--0-0-0--0-0-0---||-0-0-0--0-0-0--0-0-0--0-0-0--0-0-0--0-0-0--0-0-0--0-0-0--0-0-0--0-0-0--0-0-0---|
|Gtr.2 ||-------------------------------------------------------------------------------||-------------------------------------------------------------------------------||-7---------------------------10-----------\9-------------6---------------------||-x----------------------------x------------x-------------x---------------------||-5----------------------------8-----------\7-------------4---------------------||-------------------------------------------------------------------------------|
|Gtr.3 ||-------------------------------------------------------------------------------||-------------------------------------------------------------------------------||-7---------------------------10-----------\9-------------6---------------------||-x----------------------------x------------x-------------x---------------------||-5----------------------------8-----------\7-------------4---------------------||-------------------------------------------------------------------------------|
gtr.1|-------------------------------------------------------------------------------||-------------------------------------------------------------------------------||-------------------------------------------------------------------------------||-------------------------------------------------------------------------------||-0-0-0--0-0-0--0-0-0--0-0-0--0-0-0--0-0-0--0-0-0--0-0-0--0-0-0--0-0-0--0-0-0---||-0-0-0--0-0-0--0-0-0--0-0-0--0-0-0--0-0-0--0-0-0--0-0-0--0-0-0--0-0-0--0-0-0---|
|Gtr.2 ||-------------------------------------------------------------------------------||-------------------------------------------------------------------------------||-7---------------------------10-----------/13------------\12------------\10----||-x----------------------------x-------------x--------------x-------------x-----||-5----------------------------8-----------/11------------\10------------\ 8----||-------------------------------------------------------------------------------|
|Gtr.3 ||-------------------------------------------------------------------------------||-------------------------------------------------------------------------------||-7---------------------------10-----------/13------------\12------------\10----||-x----------------------------x-------------x--------------x-------------x-----||-5----------------------------8-----------/11------------\10------------\ 8----||-------------------------------------------------------------------------------|
gtr.1|-------------------------------------------------------------------------------||-------------------------------------------------------------------------------||-------------------------------------------------------------------------------||-------------------------------------------------------------------------------||-0-0-0--0-0-0--0-0-0--0-0-0--0-0-0--0-0-0--0-0-0--0-0-0--0-0-0--0-0-0--0-0-0---||-0-0-0--0-0-0--0-0-0--0-0-0--0-0-0--0-0-0--0-0-0--0-0-0--0-0-0--0-0-0--0-0-0---|
|Gtr.2 ||-------------------------------------------------------------------------------||-------------------------------------------------------------------------------||-7---------------------------10-----------\9-------------6---------------------||-x----------------------------x------------x-------------x---------------------||-5----------------------------8-----------\7-------------4---------------------||-------------------------------------------------------------------------------|
|Gtr.3 ||-------------------------------------------------------------------------------||-------------------------------------------------------------------------------||-10---------------------------14-----------\13------------9--------------------||--x----------------------------x------------x-------------x--------------------||--8---------------------------12-----------\11------------7--------------------||-------------------------------------------------------------------------------|
gtr.1|-------------------------------------------------------------------------------||-------------------------------------------------------------------------------||-------------------------------------------------------------------------------||-------------------------------------------------------------------------------||-0-0-0--0-0-0--0-0-0--0-0-0--0-0-0--0-0-0--0-0-0--0-0-0--0-0-0--0-0-0--0-0-0---||-0-0-0--0-0-0--0-0-0--0-0-0--0-0-0--0-0-0--0-0-0--0-0-0--0-0-0--0-0-0--0-0-0---|
|Gtr.2 ||-------------------------------------------------------------------------------||-------------------------------------------------------------------------------||-7---------------------------10-----------/13------------\12------------\10----||-x----------------------------x-------------x--------------x-------------x-----||-5----------------------------8-----------/11------------\10------------\ 8----||-------------------------------------------------------------------------------|
|Gtr.3 ||-------------------------------------------------------------------------------||-------------------------------------------------------------------------------||-10---------------------------14-----------/17------------\16------------\14---||--x----------------------------x-------------x--------------x-------------x----||--8---------------------------12-----------/15------------\14------------\12---||-------------------------------------------------------------------------------|
Gtr.1 & 3|---------||---------||---------||-0~------||-0~------||-0~------|
|Gtr.2 ||---------||---------||-7-------||-x-------||-5-------||---------|
Verse
gtr.1|--------------------------------------||--------------------------------------||--------------------------------------||----------------3---------------------||----5--0-0-0h1----0--5--0-0-0-0-0-0-0-||-------0-0--------------0-0-0-0-0-0-0-|
|gtr.2 pm. pm........... ||--------------------------------------||--------------------------------------||--------------------------------------||----------------3---------------------||----5--0-0-0h1----0--5--0-0-0-0-0-0-0-||-------0-0--------------0-0-0-0-0-0-0-| pm. pm...........
gtr.1|---------------------------------------||---------------------------------------||---------------------------------------||-----------------3---------------------||----5--0-0--0h1----0--5--------8-8-7-7-||-------0-0---------------0-0-0-8-8-7-7-|
|gtr.2 pm... pm... ||---------------------------------------||---------------------------------------||---------------------------------------||-----------------3---------------------||----5--0-0--0h1----0--5--------8-8-7-7-||-------0-0---------------0-0-0-8-8-7-7-| pm... pm...
gtr.1|--------------------------------------||--------------------------------------||--------------------------------------||----------------3---------------------||----5--0-0-0h1----0--5--0-0-0-0-0-0-0-||-------0-0--------------0-0-0-0-0-0-0-|
|gtr.2 pm. pm........... ||--------------------------------------||--------------------------------------||--------------------------------------||----------------3---------------------||----5--0-0-0h1----0--5--0-0-0-0-0-0-0-||-------0-0--------------0-0-0-0-0-0-0-|
gtr.1|---------------------------------------||---------------------------------------||---------------------------------------||-----------------3---------------------||----5--0-0--0h1----0--5--------8-8-7-7-||-------0-0---------------0-0-0-8-8-7-7-|
|gtr.2 pm... pm... ||---------------------------------------||---------------------------------------||---------------------------------------||-----------------3---------------------||----5--0-0--0h1----0--5--------8-8-7-7-||-------0-0---------------0-0-0-8-8-7-7-| pm... pm...
(Repeat Again) Pre-Chorus
gtr.1|-----------------------------------------||-----------------------------------------||-----------------------------------------||-----------3-2h3p2---2-------------------||-------0-0---------3-----0-0-3/5-0-0-5/7-||-------0-0---------------0-0-3/5-0-0-5/7-|
|gtr.2 pm. pm. pm. ||-----------------------------------------||-----------------------------------------||-----------------------------------------||-----------7-5h7p5---5-------------------||-------0-0---------7-----0-0-3/5-0-0-5/7-||-------0-0---------------0-0-3/5-0-0-5/7-| pm. pm. pm.
(Reapeat Again) Verse 2
gtr.1|--------------------------------------||--------------------------------------||--------------------------------------||----------------3---------------------||----5--0-0-0h1----0--5--0-0-0-0-0-0-0-||-------0-0--------------0-0-0-0-0-0-0-|
|gtr.2 pm. pm........... ||--------------------------------------||--------------------------------------||--------------------------------------||----------------3---------------------||----5--0-0-0h1----0--5--0-0-0-0-0-0-0-||-------0-0--------------0-0-0-0-0-0-0-| pm. pm...........
gtr.1|---------------------------------------||---------------------------------------||---------------------------------------||-----------------3---------------------||----5--0-0--0h1----0--5--------8-8-7-7-||-------0-0---------------0-0-0-8-8-7-7-|
|gtr.2 pm... pm... ||---------------------------------------||---------------------------------------||---------------------------------------||-----------------3---------------------||----5--0-0--0h1----0--5--------8-8-7-7-||-------0-0---------------0-0-0-8-8-7-7-| pm... pm...
gtr.1|--------------------------------------||--------------------------------------||--------------------------------------||----------------3---------------------||----5*-----0h1-----0--5-0-0-0-0-0-0-0-||---PH-------------------0-0-0-0-0-0-0-|
|gtr.2 pm........... ||--------------------------------------||--------------------------------------||--------------------------------------||----------------3---------------------||-----------0h1-----0--5-0-0-0-0-0-0-0-||------------------------0-0-0-0-0-0-0-| pm...........
gtr.1|---------------------------------------||---------------------------------------||---------------------------------------||-----------------3---------------------||----5--0-0--0h1----0--5--------8-8-7-7-||-------0-0---------------0-0-0-8-8-7-7-|
|gtr.2 pm... pm... ||---------------------------------------||---------------------------------------||---------------------------------------||-----------------3---------------------||----5--0-0--0h1----0--5--------8-8-7-7-||-------0-0---------------0-0-0-8-8-7-7-| pm... pm...
Chorus - Both Guitars
|---------------------------------------------------------------||---------------------------------------------------------------||---------------------------------------------------------------||-------------------------5/7-----------------------------------||-0-0-0-0--6-6--0-0--6-5--3/5--0-0-0-0--6-6--0-0--6-5--3--1--1--||-0-0-0-0--6-6--0-0--6-5-------0-0-0-0--6-6--0-0--6-5--3--1--1--| pm..... pm. pm..... pm. pm..
|-------------------------------------||-------------------------------------||-------------------------------------||--------------------------------5/7--||-0-0-0--0-0-0--6-6--0-0-0--6-5--3/5--||-0-0-0--0-0-0--6-6--0-0-0--6-5-------|
|----------------------------------------||----------------------------------------||----------------------------------------||----------------------------------------||-0-0-0--0-0-0--6-6--0-0-0--6-5--3--1--1-||-0-0-0--0-0-0--6-6--0-0-0--6-5--3--1--1-| pm..
|-------------------------------------||-------------------------------------||-------------------------------------||--------------------------------5/7--||-0-0-0--0-0-0--6-6--0-0-0--6-5--3/5--||-0-0-0--0-0-0--6-6--0-0-0--6-5-------|
|----------------------------------------||----------------------------------------||----------------------------------------||----------------------------------------||-0-0-0--0-0-0--6-6--0-0-0--6-5--3--1--1-||-0-0-0--0-0-0--6-6--0-0-0--6-5--3--1--1-| pm..
After Chorus
gtr.1|-----------------------------------------||-----------------------------------------||-----------------------------------------||-----------3-2h3p2---2-------------------||-------0-0---------3-----0-0-3/5-0-0-5/7-||-------0-0---------------0-0-3/5-0-0-5/7-|
|gtr.2 pm. pm. pm. ||-----------------------------------------||-----------------------------------------||-----------------------------------------||-----------7-5h7p5---5-------------------||-------0-0---------7-----0-0-3/5-0-0-5/7-||-------0-0---------------0-0-3/5-0-0-5/7-| pm. pm. pm.
(Reapeat Again) Verse 3 - Same as verse 1 Chorus 2
|-------------------------------------||-------------------------------------||-------------------------------------||--------------------------------5/7--||-0-0-0--0-0-0--6-6--0-0-0--6-5--3/5--||-0-0-0--0-0-0--6-6--0-0-0--6-5-------|
|----------------------------------------||----------------------------------------||----------------------------------------||----------------------------------------||-0-0-0--0-0-0--6-6--0-0-0--6-5--3--1--1-||-0-0-0--0-0-0--6-6--0-0-0--6-5--3--1--1-| pm..
|-------------------------------------||-------------------------------------||-------------------------------------||--------------------------------5/7--||-0-0-0--0-0-0--6-6--0-0-0--6-5--3/5--||-0-0-0--0-0-0--6-6--0-0-0--6-5-------|
|----------------------------------------||----------------------------------------||----------------------------------------||----------------------------------------||-0-0-0--0-0-0--6-6--0-0-0--6-5--3--1--1-||-0-0-0--0-0-0--6-6--0-0-0--6-5--3--1--1-| pm..
|----||----||----||-0~-||-0~-||-0~-|
Interlude
Gtr.1|--------------------------------------------------------------------||--------------------------------------------------------------------||--------------------------------------------------------------------||--------------------------------------------------------------------||--------------------------------------------------------------------||-0--0--0--0--0-0-0--0--0-0-0--0--0-0-0--0--0--0-0-0--0--0-0-0--0-0--|
|gtr.2 ||--------------------------------------------------------------------||--------------------------------------------------------------------||--------------------------------------------------------------------||-0~-----------------------------------------------------------------||-0~-----------------------------------------------------------------||-0~-----------------------------------------------------------------|
Gtr.1|--------------------------------------------------------------------||--------------------------------------------------------------------||--------------------------------------------------------------------||--------------------------------------------------------------------||--------------------------------------------------------------------||-0--0--0--0--0-0-0--0--0-0-0--0--0-0-0--0--0--0-0-0--0--0-0-0--0-0--|
|gtr.2 ||--------------------------------------------------------------------||--------------------------------------------------------------------||--------------------------------------------------------------------||-0~-----------------------------------------------------------------||-0~-----------------------------------------------------------------||-0~-----------------------------------------------------------------|
Gtr.1|----------------------------------------------------------------------||----------------------------------------------------------------------||----------------------------------------------------------------------||----------------------------------------------------------------------||-0-0-0-0-0-0-0-000-0-0-0-000-0-0-0--0-0-0-0-0-0-0-000-0-0-0-000-0-0-0-||-0-0-0-0-0-0-0-000-0-0-0-000-0-0-0--0-0-0-0-0-0-0-000-0-0-0-000-0-0-0-| pm..................................................................
|---------------------------------------------------||---------------------------------------------------||---------------------------------------------------||---------------------------------------------------||-5-5-5-5-5-5-555-5-5-5-5--3-3-3-3-3-3/7-7-7-7-7-7--||-5-5-5-5-5-5-555-5-5-5-5--3-3-3-3-3-3/7-7-7-7-7-7--| (Reapeat Again)
Solo
gtr.1|---------------------------------------------------------------------||---------------------------------------------------------------------||---------------------------------------------------------------------||------------9---10---------------------8-8-8-8-8-8-----5-5-5-5-5-5---||-7---7---7----------7---7---7---10-----6-6-6-6-6-6-----3-3-3-3-3-3---||---------------------------------------------------------------------|
|gtr.3 ||---------------------------------------------------------------------||-----------12-10-13----------10----12--12-10-8---------10-8-7--------||----11-12--------------11-12----12-------------12-10-9--------11-9-8-||-14-----------------14-----------------------------------------------||---------------------------------------------------------------------||---------------------------------------------------------------------|
gtr.1|------------------------------------------------------------------------||------------------------------------------------------------------------||------------------------------------------------------------------------||------------9---10----------7--9-------5-5-5-5-5-5-------8-8-8-8-8-8----||-7---7---7----------7---7--------------3-3-3-3-3-3-------6-6-6-6-6-6----||------------------------------------------------------------------------|
|gtr.3 ||------------------------------------------------------------------------||-----------12-10-13----------10----12--15-13-12----------12-10-8--------||----11-12--------------11-12----12--------------14-12-11---------11-9-8-||-14-----------------14--------------------------------------------------||------------------------------------------------------------------------||------------------------------------------------------------------------|
gtr.1|---------------------------------------------------------------------||---------------------------------------------------------------------||---------------------------------------------------------------------||------------9---10----------7--9-------8-8-8-8-8-8-----5-5-5-5-5-5---||-7---7---7----------7---7--------------6-6-6-6-6-6-----3-3-3-3-3-3---||---------------------------------------------------------------------|
|gtr.2 ||---------------------------------------------------------------------||---------------------------------------------------------------------||---------------------------------------------------------------------||------------7---9-----------4--5-------8-8-8-8-8-8-----5-5-5-5-5-5---||-7---7---7----------7---7--------------6-6-6-6-6-6-----3-3-3-3-3-3---||---------------------------------------------------------------------|
|gtr.3 ||---------------------------------------------------------------------||-----------12-10-13----------10----12--12-10-8---------10-8-7--------||----11-12--------------11-12----12-------------12-10-9--------11-9-8-||-14-----------------14-----------------------------------------------||---------------------------------------------------------------------||---------------------------------------------------------------------|
gtr.1|------------------------------------------------------------------------||------------------------------------------------------------------------||------------------------------------------------------------------------||------------9---10----------7--9-------5-5-5-5-5-5-------8-8-8-8-8-8----||-7---7---7----------7---7--------------3-3-3-3-3-3-------6-6-6-6-6-6----||------------------------------------------------------------------------|
|gtr.2 ||------------------------------------------------------------------------||------------------------------------------------------------------------||------------------------------------------------------------------------||------------7---9-----------4--5-------8-8-8-8-8-8--------5-5-5-5-5-5---||-7---7---7----------7---7--------------6-6-6-6-6-6--------3-3-3-3-3-3---||------------------------------------------------------------------------|
|gtr.3 ||------------------------------------------------------------------------||-----------12-10-13----------10----12--15-13-12----------12-10-8--------||----11-12--------------11-12----12--------------14-12-11---------11-9-8-||-14-----------------14--------------------------------------------------||------------------------------------------------------------------------||------------------------------------------------------------------------|
Back to Interlude Then Back to Intro Chorus 3 - same as chorus 2 Outro
gtr.1|-----------------------------------------||-----------------------------------------||-----------------------------------------||-----------3-2h3p2---2-------------------||-------0-0---------3-----0-0-3/5-0-0-5/7-||-------0-0---------------0-0-3/5-0-0-5/7-|
|gtr.2 pm. pm. pm. ||-----------------------------------------||-----------------------------------------||-----------------------------------------||-----------7-5h7p5---5-------------------||-------0-0---------7-----0-0-3/5-0-0-5/7-||-------0-0---------------0-0-3/5-0-0-5/7-| pm. pm. pm.
gtr.1|-----------------------------------------||-----------------------------------------||-----------------------------------------||-----------3-2h3p2---2-------------------||-------0-0---------3-----0-0-3/5-0-0-5/7-||-------0-0---------------0-0-3/5-0-0-5/7-|
|gtr.2 pm. pm. pm. ||-----------------------------------------||-----------------------------------------||-----------------------------------------||-----------7-5h7p5---5-------------------||-------0-0---------7-----0-0-3/5-0-0-5/7-||-------0-0---------------0-0-3/5-0-0-5/7-| pm. pm. pm.
gtr.1|-----------------------------------||-----------------------------------||-----------------------------------||-----------3-2h3p2---2-------------||-------0-0---------3-----0-0--0-0--||-------0-0---------------0-0--0-0--|
|gtr.2 pm. pm. pm. ||-----------------------------------||-----------------------------------||-----------------------------------||-----------7-5h7p5---5-------------||-------0-0---------7-----0-0--0-0--||-------0-0---------------0-0--0-0--| pm. pm. pm.
Please rate this tab:
x1.0