In Flames - Cloud Connected tab

Cloud Connected
In Flames
Reroute to Remain
Drop C (C G C F A D)


intro|----------------------------||----------------------------||----------------------------||-00-000--33----00-000-------||-00-000--33----00-000-------||-00-000--33----00-000-------|pm....................
|
|-----|------------------------||-----|------------------------||-----|------------------------||-3p2-|------0-----3-2---00-3--|X8|----3|----5-0-3h5-----3-00-3--||-----|------0-----------00----| pm. ..
verse1|---------||---------||---------||-00-000--||-00-000--||-00-000--|pm......
|
|-----|------------------------||-----|------------------------||-----|------------------------||-3p2-|------0-----3-2---00-3--|X2|----3|----5-0-3h5-----3-00-3--||-----|------0-----------00----|| pm. ..
|
|------------------||------------------||-7~--5~--7~--2~---||-7~--5~--7~--2~---||-5~--3~--5~--0~---||------------------|
|
|---------||---------||---------||-00-000--||-00-000--||-00-000--|pm......
|
|-----------------------------------||-----------------------------------||-----------------------------------||-3p2-------0-----3-2---00-3--5~-3~-|X2|----3----5-0-3h5-----3-00-3--5~-3~-||-----------0-----------00----5~-3~-| pm. ..
chorus|------------------------------------------------------------------||------------------------------------------------------------------||------------------------------------------------------------------||-3333333333333333777777777777777733333333333333337777777755555555-|X2|-3333333333333333777777777777777733333333333333337777777755555555-||-3333333333333333777777777777777733333333333333337777777755555555-|
verse 2|------------------------------||------------------------------||------------------------------||-00-000--00-000--33---00-000--||-00-000--00-000--33---00-000--||-00-000--00-000--33---00-000--|pm.............. ......
|
|-----|------------------------||-----|------------------------||-----|------------------------||-3p2-|------0-----3-2---00-3--|X2|----3|----5-0-3h5-----3-00-3--||-----|------0-----------00----|| pm. ..
|
|------------------||------------------||-7~--5~--7~--2~---||-7~--5~--7~--2~---||-5~--3~--5~--0~---||------------------|
|
|------------------------------||------------------------------||------------------------------||-00-000--00-000--33---00-000--||-00-000--00-000--33---00-000--||-00-000--00-000--33---00-000--|pm.............. ......
|
|-----------------------------------||-----------------------------------||-3333333333333333------------------||-33333333333333335555555533333333--||-11111111000000005555555533333333--||-----------------5555555533333333--|
chorus again
solo|--------------------------------------------19-21b-||----------------------------1717171719191919-------||--------------------17b-17b------------------------||---------------------------------------------------||----15b-15-15-15-15b-------------------------------||/12------------------------------------------------|
part after solo, piece 1|----------------------------------||----------------------------------||-33333333777777775555555522222222-||-33333333777777775555555522222222-|X4|-11111111555555553333333300000000-||----------------------------------|part 2 (played over the top)
|
|------------------------||-3-5~--7h8-10-8-7-8-7-5-||------------------------||------------------------|X3|------------------------||------------------------|
|
|----------------------------||-3-5~--7h8-10-8-7-10-8-7-5~-||----------------------------||----------------------------||----------------------------||----------------------------|
chorus again
then outro is same as intro, ending with|---------||---------||---------||-00-000--||-00-000--||-00-000--|pm......
Tap to rate this tab
 
# A B C D E F G H I J K L M N O P Q R S T U V W X Y Z