Isla Era - Barkada Ko tab version 1

Hi guyzzz!!! Stephen Obbus again to bring u a new tab!!!:) This tab is dedicated to my
Vanot and Janrey and to all my kapamilya band!!! Hehehehe!!! And of course, to my only
Nikki Louise Acuña, my wife!!!! Love u sooo much!!! I tabbed this song for my peers!!! 
rock!!! I really don’t like reggae (forgv me Rastafarians but I just don’t) but this
is exempted!!!

Tuning: Standard

Legends:
h-hammer
p-pull of
s-slide
b-bend

Chords used:D-xxx232G-xxx433A-xxx655A5-577655Dm-xxx222Bm-xx9987
Intro: Do this at the same time, always pick on the d string!!!
|-----------------10-5h7p5---------------||------7-10-7--------------7-8-8s10--10--||-7-9---------9-7------------------------||----------------------------------------||----------------------------------------||----------------------------------------|
|---------------------------------||------7-10-7------8-7h8p7--------||-7-9---------9-7----------7-9-7--||---------------------------------||---------------------------------||---------------------------------|
Do this 3x times, play it solo 1 time and 2 times with the drums then:
|-----------------------||--5h7--------7------7--||--5h7--------7------7--||--5h7--2-2h4-7------7--||----------------4h5----||-----------------------|
Verse 1: Do the reggae thing!! Stroke the chords upward!!! D G A Ikaw, ako, tayo ang nagbuo D G A Samahan natin walang tatalo D G A Ako matalino, ikaw bobo (joke lang) D G A Pag-iisip naman ay buong-buo
|-----------------10-5h7p5---------------||------7-10-7--------------7-8-8s10--10--||-7-9---------9-7------------------------||----------------------------------------||----------------------------------------||----------------------------------------|
|---------------------------------||------7-10-7------8-7h8p7--------||-7-9---------9-7----------7-9-7--||---------------------------------||---------------------------------||---------------------------------|
D G A Pabili nga ng sigarilyo D G A Isang stick ayos na ito D G A Paabot na rin ng posporo D G A Pag-sindi pre’ fifty tayo Chorus In chorus, do not do the upward stroke but instead pluck it!!! I will show u how cause there are some alt. plucking for sum chord!!!
G A D|---3----|-------|---5---|---2---||-----3--|---5---|-----5-|-----3-||-4------|-6---6-|-6-----|--2----||--------|-------|-------|-------||--------|-------|-------|-------||--------|-------|-------|-------|
G A D D Kaming lahat ay hindi patatalo G A D D Sasabay kahit anong uso G A D D Magkasama saan man patungo G G A Ok talaga ang barkada ko Just listen to the song to find out where the alternative plucking will occur… Interlude:
|-----------------10-5h7p5---------------||------7-10-7--------------7-8-8s10--10--||-7-9---------9-7------------------------||----------------------------------------||----------------------------------------||----------------------------------------|
|---------------------------------||------7-10-7------8-7h8p7--------||-7-9---------9-7----------7-9-7--||---------------------------------||---------------------------------||---------------------------------|
|-----------------------||--5h7--------7------7--||--5h7--------7------7--||--5h7--2-2h4-7------7--||----------------4h5----||-----------------------|
Verse 2: Do the same on verse 1!!! Kumusta na pare ko Gigimik na naman ba tayo Gusto kong akyatin ang mt. apo Tara na excited na ako (Repeat Chorus) D Dm Kung may problema ka G A Nandito ang barkada Bm Dm Huwag kang mangangamba A5 ‘di ka nag-iisa When u reach “nag”, pluck this:
A5|-----------------------||------5-------5--5---5-||----6---6---6---6--6---||-7--------7------------||-----------------------||-----------------------|
(Repeat Chorus 2x) Outro: Do this at the same time, always pick on the d string!!!
|-----------------10-5h7p5---------------||------7-10-7--------------7-8-8s10--10--||-7-9---------9-7------------------------||----------------------------------------||----------------------------------------||----------------------------------------|
|---------------------------------||------7-10-7------8-7h8p7--------||-7-9---------9-7----------7-9-7--||---------------------------------||---------------------------------||---------------------------------|
Play this twice!!! Then:
|----------------------------||--15151515--17171717-17b-15-||--14141414--16161616-16b-14-||----------------------------||----------------------------||----------------------------|
txt 09183865859-09268955888-09155499854 for comments!!! e-mail or add me in friendster-rhen_steph@yahoo.com!!!
Tap to rate this tab
 
# A B C D E F G H I J K L M N O P Q R S T U V W X Y Z