Il Chitarrista tab with lyrics by Ivan Graziani - Easy chords and tabs for guitar

Ivan Graziani – Il Chitarrista tab

Ivan Graziani - Il Chitarrista (1983)


Riff 1:

0:10|--------------------------------------------------||--5-5-3---3---5/7--5-3---3------------------------||--------4---4----------4---4-2-4------------------||---------------------------------2p0--------------||--------------------------------------2p0---------||-------------------------------------------3b4--0-|
Riff 2:
0:39|--------------------------------------------------||--7-7-5---5---7/9--7~--5---5----------------------||--------6---6------------6--6--4-6----------------||------------------------------------4p2-----------||-----------------------------------------4p2--0---||------------------------------------------------2-|
Lick 1:
1:30|-------------7~--||----7h8--7-------||--9--------9-----||-----------------||-----------------||-----------------|
Lick 2:
1:51|--10--------||--10(12)----||---------9--||------------||------------||------------|
SOLO:
2:00 2:07||-----------------|---------------------------------|------------------------------2-4-4/7~-|||-----------------|---------------------------------|-------2-3p2--5p3--2---2-2/5-----------|||-----------------|--------------------1-1h2--1-----|--2/4----------------4-----------------|||----0---4b5--2~--|--2p0-------------2----------2~--|---------------------------------------|||--2---2----------|-------4p2--0---2----------------|---------------------------------------|||-----------------|--------------4------------------|---------------------------------------|
|-------------------------------------------------------||-------0-2-5~-------0-2-3~-------3h5--7b8--7-5---2-3~--||--2/4----------2/4----------2/4----------------4-------||-------------------------------------------------------||-------------------------------------------------------||-------------------------------------------------------|
2:14|-/10--10--10--10--10--10-|-------------------| -||--/9---9---9---9---9---9-|-------------------| ||--/7---7---7---7---7---7-|-------------------| ||-------------------------|-------------------| | X3|-------------------------|-/5--5--5--5--5--5-| ||-------------------------|-------------------| -|
2:21|-/10--10--10--10--10--10--10--10--10--10--10--10--||--/9---9---9---9---9---9---9---9---9---9---9---9--||--/7---7---7---7---7---7---7---7---7---7---7---7--||--------------------------------------------------||--------------------------------------------------||--------------------------------------------------|
2:24|-------0-------------------------|-------------------------------------------------||--------3------------------------|-------------------------------------------------||--2/4-------4\2--0-2p0----0------|-------------------------------------------------||------------------------2---2p0--|--2p0----0---------------------------------------||---------------------------------|-------2---2p0--2p0----0h2----------------4b5--0-||---------------------------------|---------------------3------0-0-2-3-5-3-5--------|
2:29 2:33|--0----0-0-0-|----12-------|||--2----2-1-2-|----15(18)~--|||--0----0-0-0-|-------------|||--2----2-1-2-|-------------|||--0----0-0-0-|-------------|||-------------|-------------||
Please rate this tab:
x1.0