Jars Of Clay - Overjoyed tab

 Hi to all… Syllabication to ng overjoyed by stevie wonder.         
Para to sa ..honeyko.. hehehehehehe
==OPM(original pinoy musicians)Rock== PUNK ROCK+ROCK ON!!


=STANDARD TUNING=

Overtime………………………………………---------------10-------11-|------------------10-------11-|-------------------11------|----------------------11------|---------------------------|------------------------------|---------------------------|------------------------------|---------------------------|------------------------------|---------------------------|------------------------------|
……………………….love ---------10---------11-------10----------|-----------------------|------------11-11----------------11---11-|--9--------------------|---------------15------------------------|-----------------------|-----------------------------------------|-----------------------|-----------------------------------------|-----------------------|-----------------------------------------|-----------------------|
just for two……………………………….---------------11--10------|-------------------11--10-------|---------------------------|--11----------------------11-11-|---------------------------|--------------------------------|---------------------------|--------------------------------|---------------------------|--------------------------------|---------------------------|--------------------------------|
…………………………………………………..rea----------11--10----------------------8-|----------------------8-|----------------11-11------------------|------------------------|--------------------------12-10-8------|------------------------|---------------------------------------|------------------------|---------------------------------------|------------------------|---------------------------------------|------------------------|
-son… I’ve gone much too far…………..--7-----------------------|--10------8--7----5------------3-|---------------------8----|---------------------------------|--------------------------|---------------------------------|--------------------------|---------------------------------|--------------------------|---------------------------------|--------------------------|---------------------------------|
That I've got to throw my castle away--5------7--5-7---------------|--10------8--6----5-----------6----|----------------------------8-|-----------------------------------|------------------------------|-----------------------------------|------------------------------|-----------------------------------|------------------------------|-----------------------------------|------------------------------|-----------------------------------|
STANZA AGAIN……--8------10-------8-------10-------11-|----------------10-------11-|-------------11---------------11------|--------------------11------|--------------------------------------|----------------------------|--------------------------------------|----------------------------|--------------------------------------|----------------------------|--------------------------------------|----------------------------|
---------10---------11-------10----------|-----------------------|------------11-11----------------11---11-|--9--------------------|-----------------------------------------|-----------------------|-----------------------------------------|-----------------------|-----------------------------------------|-----------------------|-----------------------------------------|-----------------------|
---------------11--10------|-------------------11--10-------|---------------------------|--11----------------------11-11-|---------------------------|--------------------------------|---------------------------|--------------------------------|---------------------------|--------------------------------|---------------------------|--------------------------------|
---------11--10----------------------8-|----------------------8-|----------------11-11------------------|------------------------|--------------------------12-10-8------|------------------------|---------------------------------------|------------------------|---------------------------------------|------------------------|---------------------------------------|------------------------|
--7-----------------------|--10------8--7----5------------3-|---------------------8----|---------------------------------|--------------------------|---------------------------------|--------------------------|---------------------------------|--------------------------|---------------------------------|--------------------------|---------------------------------|
--5------7--5-7---------------|--10------8--6----5-----------6----|----------------------------8-|-----------------------------------|------------------------------|-----------------------------------|------------------------------|-----------------------------------|------------------------------|-----------------------------------|------------------------------|-----------------------------------|
CHORUS: though you don’t………. --8------10--8----10--------8-10-11-13-|--15------13-------13------------|-------------------------11------------|--------------13-----------------|---------------------------------------|---------------------------------|---------------------------------------|---------------------------------|---------------------------------------|---------------------------------|---------------------------------------|---------------------------------|
--13------11-------11------------|--11------10--8----10--------------8-|--------------11-----------------|------------------------------9-11---|---------------------------------|-------------------------------------|---------------------------------|-------------------------------------|---------------------------------|-------------------------------------|---------------------------------|-------------------------------------|
--9------8--6----8-------8-10-12-13-15-|--17------15-------15------------|---------------------------------------|--------------15-----------------|---------------------------------------|---------------------------------|---------------------------------------|---------------------------------|---------------------------------------|---------------------------------|---------------------------------------|---------------------------------|
--15------13-------13-------10-------11-|------------------10-------11-|--------------13----------------11------|----------------------11------|----------------------------------------|------------------------------|----------------------------------------|------------------------------|----------------------------------------|------------------------------|----------------------------------------|------------------------------|
2nd stanza-------------------|-------------------10-------11--|-------------------|-----------------------11-------|-------------------|--------------------------------|-------------------|--------------------------------|-------------------|--------------------------------|-------------------|--------------------------------|
------------------10-------11--|---------10---------11-------10------------|----------------------11-------|------------11-11----------------11---11---|-------------------------------|-------------------------------------------|-------------------------------|-------------------------------------------|-------------------------------|-------------------------------------------|-------------------------------|-------------------------------------------|
-------------------------|-------------------11--10---------|----9--------------------|----------------------------------|-------------------------|----------------------------------|-------------------------|----------------------------------|-------------------------|----------------------------------|-------------------------|----------------------------------|
-------------------11--10--------|---------11--10----------------------8--|----11--------------------11-11--|----------------11-11-------------------|---------------------------------|--------------------------12-10-8-------|---------------------------------|----------------------------------------|---------------------------------|----------------------------------------|---------------------------------|----------------------------------------|
----------------------8-7-|-----------------------------|--------------------------|---------------------8-------|--------------------------|-----------------------------|--------------------------|-----------------------------|--------------------------|-----------------------------|--------------------------|-----------------------------|
----10----8--7----5------------3---|----5----7--5-7-----------------|-----------------------------------|----------------------------8---|-----------------------------------|--------------------------------|-----------------------------------|--------------------------------|-----------------------------------|--------------------------------|-----------------------------------|--------------------------------|
----10----8--6----5-----------6----8-|-------------------------------------|-------------------------------------|-------------------------------------|-------------------------------------|-------------------------------------|
CHORUS----10--8----10--------8-10-11-13-15-|---------13-------13------------13-|--------------------11---------------|-------------13--------------------|-------------------------------------|-----------------------------------|-------------------------------------|-----------------------------------|-------------------------------------|-----------------------------------|-------------------------------------|-----------------------------------|
---------11-------11------------11-|---------10--8----10--------------8-9-|-------------11--------------------|-----------------------------9-11-----|-----------------------------------|--------------------------------------|-----------------------------------|--------------------------------------|-----------------------------------|--------------------------------------|-----------------------------------|--------------------------------------|
----8--6----8-------8-10-12-13-15---|----17----15-------15------------15-|------------------------------------|--------------15--------------------|------------------------------------|------------------------------------|------------------------------------|------------------------------------|------------------------------------|------------------------------------|------------------------------------|------------------------------------|
---------13-------13-------10-------11--|------------------10-------11--|-------------13----------------11-------|----------------------11-------|----------------------------------------|-------------------------------|----------------------------------------|-------------------------------|----------------------------------------|-------------------------------|----------------------------------------|-------------------------------|
------------------10----------13-|------------------11-10-13---12-|----------------------11---11----|--------------------------------|---------------------------------|--------------------------------|---------------------------------|--------------------------------|---------------------------------|--------------------------------|---------------------------------|--------------------------------|
------------------20-17-15-13-15-|--17------15-------15------15---|---------------------------------|--------------15----------------|---------------------------------|--------------------------------|---------------------------------|--------------------------------|---------------------------------|--------------------------------|---------------------------------|--------------------------------|
----------15----15---13------------13-|-------16----16-----------------------|--------------------------------------|--------------------------------------|--------------------------------------|--------------------------------------|
---------12--10---12---------------10-11-|-----------------------------11-13-------|-----------------------------------------|-----------------------------------------|-----------------------------------------|-----------------------------------------|
---------10-8-8----10-------10-12-14-15-17-19-|----------------------------------------------|----------------------------------------------|----------------------------------------------|----------------------------------------------|----------------------------------------------|
----17-------17---------17-19---|----19--19--17-15----------------------|--------17----------------------|--------------------------17-------18--|--------------------------------|------------------------------17-------|--------------------------------|---------------------------------------|--------------------------------|---------------------------------------|--------------------------------|---------------------------------------|
---------------------------------|---------------------15-13--15-13--|------------------17----------18-|---------18-17---------------------|----------------------17---17----|-----------------------------------|---------------------------------|-----------------------------------|---------------------------------|-----------------------------------|---------------------------------|-----------------------------------|
-----------------12-13-12-13--|--12-13----------12-13-12-13-12-13-12-11--|------------------------------|------------------------------------------|------------------------------|------------------------------------------|------------------------------|------------------------------------------|------------------------------|------------------------------------------|------------------------------|------------------------------------------|
------------------------10-|---------------------13---11-|---------------------------|-----------------------------|---------------------------|-----------------------------|---------------------------|-----------------------------|---------------------------|-----------------------------|---------------------------|-----------------------------|
===ROCA=== *Also checkout because you loved me (syllabication) tabbed by yours truly*
Tap to rate this tab
 
# A B C D E F G H I J K L M N O P Q R S T U V W X Y Z