Jimi Hendrix - Manic Depression tab

              
                             (Manic Depression)
                           Jimi Hendrix Experience
                  Jimi Hendrix ~ Mitch Mitchell ~ Noel Redding
                   (From the 1967 Album "ARE YOU EXPERIENCED")


Tabbed By: CanadianMonk

This song is quite fast, so I have broken it into smaller parts so it is more easily understandable.
______________________
Key:                 |
 /      Slide up     |
 \      Slide down   |
 h      Hammer-on    |
 p      Pull-off     |
 /\/\   Vibrato      |
 +      Harmonic     |
 x      Mute note    |
 #      Feedback     |
 ~~     Hold Note    |
_____________________|




Gtr. 1Intro|-----------|-----------|-----------||-----------|-----------|-----------||-----------|-----------|-----------||-----------|-----------|--4--5--6--||--4--5--6--|-----------|-----------||-----------|-----------|-----------|
Verse 1|-----------|-----------|||-----------|-----------|||-----------|-----------|| x2|---6-4-6-4-|---6-4-6-4-|||-----------|-----------|||--6--------|--6--------||
|-----------|-----------|-----------|||-----------|-----------|-----------|||-----------|-----------|-----------|||-----------|-----------|-----------|||---------6-|---------4-|--4--5--6--|||-6-8h9h10--|-4-6h7h8---|-----------||
|-----------|-----------|||-----------|-----------|||-----------|-----------|| x2|---6-4-6-4-|---6-4-6-4-|||-----------|-----------|||--6--------|--6--------||
|-----------|-----------|-----------|||-----------|-----------|-----------|||-----------|-----------|-----------|||-----------|-----------|-----------|||---------6-|---------4-|--4--5--6--|||-6-8h9h10--|-4--6h7h8--|-----------||
|-----------|-----------|-----------|------------||-----------|-----------|-----------|------------||-----------|-----------|-----------|------------||--6-4-6-4--|--6-4-6-4--|--6-4-6-4--|--6-4-------||-----------|-----------|-----------|------------||-6---------|-6---------|-6---------|6----12\(1)-|
|-----------|-----------||-----------|-----------||-----------|-----------||-----------|-----------||--------1--|--------4--||-1-3h4h5---|-4---1-----|
|------------------------------------------||------------------------------------------||------------------------------------------||------------------------------------------||-4~~~2-4-2-4~~1-2-1-2-1-2-----------------||-------------------------3-4-3-4-3-4-3-4--|
|-----------|-----------|-----------||-----------||-----------||-----------|-----------|-----------||-----------||-----------||-----------|-----------|-----------||-----------||-----------||-----------|-----------|-----------||-----------||--4--5--6--||---------6-|---------4-|--4--5--6--||-----------||-----------||-6-8h9h10--|-4--6h7h8--|-----------||-----------||-----------|
|-----------|-----------|-----------|------------||-----------|-----------|-----------|------------||-----------|-----------|-----------|------------||--6-4-6-4--|--6-4-6-4--|--6-4-6-4--|--6-4-------||-----------|-----------|-----------|------------||-6---------|-6---------|-6---------|6----12\(1)-|
Verse 2|-----------|-----------|-----------|||-----------|-----------|-----------|||-----------|-----------|-----------|||-----------|-----------|-----------|||---------6-|---------4-|--4--5--6--|||-6-8h9h10--|-4--6h7h8--|-----------||
NOTE: Full Bends (^=1) |-----------|-----------|-----------|-----------|||---4^-4^-r-|---4^-4^-r-|---4^-4^-r-|---4^-4^-r-|||---7^-7^---|---7--7----|---7--7----|---7--7----|||-----------|-----------|-----------|-----------|||-----------|-----------|-----------|-----------|||-6---------|-6---------|-6---------|-6---------||
|-----------|-----------|-----------|||-----------|-----------|-----------|||-----------|-----------|-----------|||-----------|-----------|-----------|||---------6-|---------4-|--4--5--6--|||-6-8h9h10--|-4--6h7h8--|-----------||
|-----------|-----------|-----------|-------------|||---4^-4^-r-|---4^-4^-r-|---4^-4^-r-|-------------|||---7--7----|---7--7----|---7--7----|-------------|||-----------|-----------|-----------|-------------|||-----------|-----------|-----------|-------------|||-6---------|-6---------|-6---------|-6-(1)/12\(1)||
|--------------------------------------------------------|||--------------------------------------------------------|||--------------------------------------------------------|||--------------------------------------------------------|||------1---1-4--4~~~2-4-2-4~~~1-2-1-2-1-2----------------|||--1-5---4-------------------------------3-4-3-4-3-4-3-4-||
|-----------|-----------|-----------||--x-x-x--||-----------|--x-x-x--||-----------|-----------|-----------||--x-x-x--||-----------|--x-x-x--||-----------|-----------|-----------||--x-x-x--||-----------|--x-x-x--||-----------|-----------|-----------||--x-x-x--||--4--5--6--|--x-x-x--||---------6-|---------4-|--4--5--6--||--x-x-x--||-----------|--x-x-x--||-6-8h9h10--|-4--6h7h8--|-----------||--x-x-x--||-----------|--x-x-x--|
|----------------------|||----------------------|||----------------------|||-------------4--5--6--|||--4--5--6-------------|||----------------------||
SOLO - (Very Difficult)|-----------||-4---------||-6^(8)~~~~~||-----------||-----------||-----------|
|-----------|----------|----------|-----------|----------|----------||-(4)s~~~6--|-7--------|-(8)------|-11--------|-(11)-----|-14-------||-(6)rs~~8--|-9^(10)~~~|~(9)r-----|-13^(15)~~~|~(13)r----|-16^(18)--||-----------|----------|----------|-----------|----------|----------||-----------|----------|----------|-----------|----------|----------||-----------|----------|----------|-----------|----------|----------|
|------------------------|-----------------|--------------||-14-----(14)------(14)--|-----------------|--------------||-16^(18)r~(16)^18~~~(16)|-16^(20)~~~(16)--|-(16)r--------||------------------------|-----------------|--16^(18)~~~~~||------------------------|-----------------|--------------||------------------------|-----------------|--------------|
|---------------------|-------------------------||---------------------|----------------x-s-x\---||-------------16^(20)~|~(16)r---16^(19)~~x-s-x\-||-(16)r~(16)----------|---------16^(17)--x-s-x\-||---------------------|--16^(17)----------------||---------------------|-------------------------|
|---------------|-4---------(4)--4-||-----------4-7-|-4-7^(9)~~~(7)r---||-/4----6^(8)---|------------------||---------------|------------------||---------------|------------------||---------------|------------------|
|-4-----------4-----7p4-|---7p4---7-4h6p4---4-4-----||---7p4-----4---7p4-----|-4-----4---------7---7^(9)~||-------6^(8)-----------|---------------------------||-----------------------|---------------------------||-----------------------|---------------------------||-----------------------|---------------------------|
|-(4)--4----------------------------||-(7)r---7-4-----7p4----------------||-----------6^(8)---6p^(7)r(6)-4--4-||-------------------------------6---||-----------------------------------||-----------------------------------|
|---4----------7-9----9s11-----|----14^(15)~~(14)--(14)^(16)~~(14)r-||-4---7^(9)--/9--7h9p8------9--|-(9)14^(15)~~(14)--(14)^(16)~~(14)r-||------------------------------|------------------------------------||------------------------------|------------------------------------||------------------------------|------------------------------------||------------------------------|------------------------------------|
|-(14)-14s6-[4]-16-16-|-16----16----------------16-------16-||---------------------|-19^(21)--19^(21)~~(19)r--19^(20)-16-||---------------------|-------------------------------------||---------------------|-------------------------------------||---------------------|-------------------------------------||---------------------|-------------------------------------|
|-------16----------------------------------||-19p16----16----19p16----16h19p16----19p16-||----------20^(21)------18---------19-------||-------------------------------------------||-------------------------------------------||-------------------------------------------|
|---------------------------------------------------------||-------------------19-------19-------19-------19---------||-18^(20)~~(18)-(18)r----18^(20)----18^(20)----18^(20)----||---------------------------------------------------------||---------------------------------------------------------||---------------------------------------------------------|
|---------------------------------------------|---------16---16-19^(21)~~~||(19)------19-------19------------------------|------16---19^(21)---------||---18^(20)--18^(20)--18p^(20)r(18)-16-18^(20)|~(18)r---------------------||---------------------------------------------|---------------------------||---------------------------------------------|---------------------------||---------------------------------------------|---------------------------|
|-(19)r-----19-|-------------------------16---(16)-||--------------|-x-x-19-(19)^(21)~~~(19)r--19--16--||--------------|-x-x-------------------------------||--------------|-----------------------------------||--------------|-----------------------------------||--------------|-----------------------------------|
|----------------------------|---------------------|--------------------||-------19-------19-------19-|---------------------|--------------------||-18^(20)-18^(20)---18^(20)--|-18^(20)~~(18)-(18)--|-(18)^(21)~~~~~(18)r||----------------------------|---------------------|---------------x----||----------------------------|---------------------|--------------------||----------------------------|---------------------|--------------------|
|-----------------|--------------------||-----------------|--------------------||-18^(20)~~~(18)--|(18)^(21)~~~~~(18)r-||-----------------|---------------x----||-----------------|--------------------||-----------------|--------------------|
|------------------|----------------|---------|-----------|||------------------|-19-------------|---------|-----------|||-18^(20)~~~(18)r--|-----18^(20)-18-|-16------|-([16])----|||------------------|----------------|---------|-----------|||------------------|----------------|---------|-----------|||------------------|----------------|---------|-----------||(End Solo)
Verse 3|---------------|---------------|------------||---------------|---------------|------------||---------------|---------------|------------||---------------|---------------|------------||---------6-----|---------4-----|--4--5--6---||-6-8h9h10------|-4--6h7h8------|------------|
|---------------|---------------|--5^-5-5^-------------|||------4^-4^~~--|------4^-4^~~--|--7^---7^-4^-4^-(4^)r-|||------7^-7^~~--|------7^-7^~~--|----------7^-7^-(7^)r-|| |---------------|---------------|----------------------|||---------------|---------------|----------------------|||6--------------|6--------------|6---------------------||
|---------------|---------------|------------||---------------|---------------|------------||---------------|---------------|------------||---------------|---------------|------------||---------6-----|---------4-----|--4--5--6---||-6-8h9h10------|-4--6h7h8------|------------|
|---------------|---------------|---------------|---------------||----4^-4^~~----|---4^-4^~~-----|----4^-4^~~----|----4^---------||----7^-7^~~----|---7^-7^~~-----|----7^-7^~~----|----7^---------||---------------|---------------|---------------|---------------||---------------|---------------|---------------|---------------||6--------------|6--------------|6--------------|6-------12\(0)-|
|-----------|-----------||-----------|-----------||-----------|-----------||-----------|-----------||--------1--|--------4--||-1---5-----|-4---1-----|
|------------------------------------------|||------------------------------------------|||------------------------------------------|||------------------------------------------|||-4~~~2-4-2-4~~1-2-1-2-1-2-----------------|||-------------------------3-4-3-4-3-4-3-4--||
|-----------|-----------|-----------||-----------||-----------||-----------|-----------|-----------||-----------||-----------||-----------|-----------|-----------||-----------||-----------||-----------|-----------|-----------||-----------||--4--5--6--||---------6-|---------4-|--4--5--6--||-----------||-----------||-6-8h9h10--|-4--6h7h8--|-----------||-----------||-----------|
|-----------|-----------|-----------|||-----------|-----------|-----------|||-----------|-----------|-----------|||-----------|-----------|--4--5--6--|||--4--5--6--|-----------|-----------|||-----------|-----------|-----------||
|-----------|-----------||-----------|-----------||-----------|-----------||-----------|--4--5--6--| x2|--4--5--6--|-----------||-----------|-----------|
/\/\ /\/\/\/\|----------------|------------5^--||------------4^--|------------7^--||------------7^--|----------------||----------------|--4--5--6-------| x2|--4--5--6-------|----------------||----------------|----------------|
|-------------|-------------||-------------|-------------||-------------|-------------||-------------|--4--5--6----| x2|--4--5--6----|-------------||-------------|-------------|
/\/\/\/|----------------|-----------------|-----------------|------------5^----||------------4^--|------------4^---|------------4^---|------------7^----||------------7^--|------------7^---|------------7^---|------------------||----------------|--4--5--6--------|-----------------|--4--5--6---------||--4--5--6-------|-----------------|--4--5--6--------|------------------||----------------|-----------------|-----------------|------------------|
|-----------|-----------||-----------|-----------||-----------|-----------||-----------|--4--5--6--| x3|--4--5--6--|-----------||-----------|-----------|
ending/outro |-----------|------------||-4^--------|-4--4--4----||-6^(8)~~~~~|~6--6--6r---||-----------|------------||-----------|------------||-----------|------------|
/\/\/\/\/\/\/\/\/\/\/ /\/\/\/\/\/\/\/\/\|---------------------|------------------|-----------------------||--7-----7--7-7--7--7-|--7-7--7-7--7--7--|-11-----11-11-11-11-11-||--8^(11)~~~9----9--9-|--9----9----9--9r-|-13^(15)~~~13-13-13-13-||---------------------|------------------|-----------------------||---------------------|------------------|-----------------------||---------------------|------------------|-----------------------|
/\/\/\/\/\/\/\/\ /\/\\/\/\/\/\/|--------------------|------------------------||-11-11-11-11-11-11--|-14-----14-14-14-14-14--||-13-13-13-13-13-13r-|-16^(18)~~~16-16-16-16--||--------------------|------------------------||--------------------|------------------------||--------------------|------------------------|
/\/ \/\/\/\/\/\/\/\/\/\/|-------------|--------|---------|--------|--------------|----------------||-14--14\-----|--------|---------|--------|--------------|----------------||-16--16r\--x-|--------|---------|--------|--------------|----------------||-----------x-|-x-9----|---------|--------|--------------|-------4####-#-#||-------------|--------|----11---|----9---|--------------|--6~~~~6--------||-------------|--------|---------|--------|-11^(12)~~r---|--6~~~----------|
|-------------|-------------|||-------------|-------------|||-------------|-------------|||##-##-#-fade-|-------------|||-------------|-------------|||-------------|-------------||
Tap to rate this tab
 
# A B C D E F G H I J K L M N O P Q R S T U V W X Y Z