Jimi Hendrix - The Star Spangled Banner tab

                            THE STAR SPANGLED BANNER
                           As recorded by Jimi Hendrix
                     (From the 1998 Album LIVE AT WOODSTOCK)

Transcribed by http://www.mikesguitarsite.co.uk

fluctuates (very freely) Q=65 3/4 Gtr I|-----|---------0-|-(0)------|-(0)----2s4-2-|-0---------||-0---|-------0---|----------|--------------|-----------||---1-|----1------|----------|--------------|----1s=3s==||-----|-2---------|----------|--------------|-----------||-----|-----------|----------|--------------|-----------||-----|-----------|----------|--------------|-----------|
~|--------|-------------|-------------------------|-----------|-0--0------||--------|-------------|-7b9==(7)--(7)-9r7-5h7p5-|-4----\2-4-|-------0---||-4------|-(4)----/4-4-|-------------------------|-----------|-----------||--------|-------------|-------------------------|-----------|-----------||--------|-------------|-------------------------|-----------|-----------||--------|-------------|-------------------------|-----------|-----------|
|-------------|----------|-0------|-(0)----2S4-4h5-|-4tr5----2tr4---||---------0---|-------0--|--------|----------------|----------------||-0h1-------1-|----1-----|--------|----------------|----------------||------2------|-2--------|--------|----------------|----------------||-------------|----------|--------|----------------|----------------||-------------|----------|--------|----------------|----------------|
~~~~ ~|-0-----------|-------------|------------------|------------|--------------||-------------|-------------|------------------|------------|-7b9==(7)r====||----1s=3s1s3s|=4s=6s8-(8)s=|=6h8p6h8p6s4h6-4--|-(4)----4-4-|--------------||-------------|-------------|------------------|------------|--------------||-------------|-------------|------------------|------------|--------------||-------------|-------------|------------------|------------|--------------|
~|-----------------|-------------------------||-(7)r=(7)--5-5h7-|-(7)b9==(7)r(7)-5h7p5-4--||-----------------|-------------------------||-----------------|-------------------------||-----------------|-------------------------||-----------------|-------------------------|
|-------------|-0--0-----|-------/4-4--||-(4)----\2-4-|-------0--|-------------||-------------|----------|-1-----------||-------------|----------|----2--------||-------------|----------|-------------||-------------|----------|-------------|
|-4--5--7--|-7------|-----------------------||----------|--------|-/17b19==(17)r===(17)--||----------|--------|-----------------------||----------|--------|-----------------------||----------|--------|-----------------------||----------|--------|-----------------------|
~|--------|----------x-x-x-x-x-x-|------x-x-x-x-x-x----||--------|----------x-x-x-x-x-x-|------x-x-x-x-x-x----||--------|----------x-x-x-x-x-x-|------x-x-x-x-x-x----||-0------|-(0)------------------|-(0)-----------------||-0------|-(0)------------------|-(0)-----------------||-0------|-(0)------------------|-(0)-----------------|
|--x--x-x-x-x-x------------------|---------------||--x--x-x-x-x-x-x-x-x-x-x-x------|---------------||--x--x-x-x-x-x-x-x-x-x-x-x------|---------------||-(0)-----------x-x-x-x-x-x------|-------h4/-h4/-||-(0)----------------------------|---------------||-(0)-----------------------15\--|-0\------------|
|-----------------------------------------|-------------------||-----------------------------------------|-------------------||-15b17==(15)--(15)r(15)-15b17==(15)r(15)-|-----------------x-||-----------------------------------------|-------------------||-----------------------------------------|-------------------||-----------------------------------------|-x\-x\-x\-x\--x\---|
~~~~|----------------------------|---------------------------||-17b19==(17)--(17)r(17)-----|-17b20==(17)--(17)r(17)----||--------------------------0-|---------------------------||------------------------0---|------------------------0--||----------------------------|------------------------0--||----------------------------|------------------------0--|
~~~~~|--------------------|-----------------------||--------------------|-----------------------||--------------------|-----------------------||-(0)----x-x-x-x-x-x-|-x-x-x-x---x-x-x-x-x-x-||-(0)----x-x-x-x-x-x-|-x-x-x-x---x-x-x-x-x-x-||-(0)--x-x-x-x-x-x-x-|-x-x-x-x---x-x-x-x-x-x-|
\7 ~ ~|-----------|---------/5-4-|-2--4--5--|-5/--------------|-----------------||-----------|--------------|----------|-----------------|-----------------||-0---------|--------------|----------|-----h8----h8----|-h8-0h8p0h8p0h8--||-----------|--------------|----------|-----h8----h8----|-h8-0h8p0h8p0h8--||-----------|--------------|----------|--------h7----h7-|-----------------||------/17--|-(17)---------|----------|-----------------|-----------------|
\4/ \4/ \4/ \4/ \4/ \4/ \4/ \4/ \4/ \4/|------------------------------|----------------------------||------------------------------|----------------------------||------------------------------|-------------------------13-||-0---(0)--(0)--(0)--(0)--(0)--|-(0)--(0)--(0)--(0)--5-0----||-0---(0)--(0)--(0)--(0)--(0)--|-(0)--(0)--(0)--(0)---------||------------------------------|----------------------------|
\2____\2____\3___\3_______|--------------------------------||-----h13---------h11--------h10-||-h12-------h10---------h9-------||--------------------------------||--------------------------------||--------------------------------|
~~~~~~~~~~~~~~~~~~~~|---------------------------------||---------------------------------||-0h13-(13)p0h13p0h13p0h13p0h13p0h||---------------------------------||---------------------------------||---------------------------------|
~~~~~~~~~~~~~~~~~~~~~~~~~~~~~~~~~~~~~~~~~~~~~~~~~~~~~~~~~~~~~~~||----------------------------------------------------------------||||o--------------------------------------------------------------o||||--13p0h13p0h13p0h13p0h13p0h13p0h13p0h13p0h13p0h13p0h13p0h13p0---||||----------------------------------------------------------------||||o--------------------------------------------------------------o||||----------------------------------------------------------------||
\7 \7 ~ ~|---------|--------|---------|--------||---------|--------|-0-------|--------||-0-------|--------|-0-------|--------||---------|-0------|---------|-0------||---------|-0------|---------|-0------||---------|-0------|---------|-0------|
\7______/ \7 ~~~~~~~~~~~~~~~~~|-0------(0)--|-(0)------|-0----0-0-0-0-0-0--||-0------(0)--|-(0)------|-0----0-0-0-0-0-0--||-------------|----------|-0----0-0-0-0-0-0--||-------------|----------|-0-----------------||-------------|----------|-0-----------------||-------------|----------|-------------------|
~~~~~~~~~~~~~~~~~~~~~~~~~~~|-0--0-0-0-0-0-0-0-0-0-0-0-0-||-0--0-0-0-0-0-0-0-0-0-0-0-0-||-0--0-0-0-0-0-0-0-0-0-0-0-0-||-0--------------------------||----------------------------||----------------------------|
\7 ~~|---18b20==(18)--(18)-(19)r-|-16----0--|-17b19r(17)----||-0-------------------------|-------0--|-15b17r(15)----||-0-------------------------|-------0--|---------------||-0-------------------------|----------|---------------||---------------------------|----------|---------------||---------------------------|----------|---------------|
\7 \7 ~|-------------------------|-------------|-------/5--|-4--(4)p2h4p2p0--||---15b20==(15)-(15)--21--|-(21)--------|-0---------|-----------------||-0-----------------------|-------------|-0---------|-----------------||-------------------------|-------0-----|-0---------|-----------------||-------------------------|-------0-----|-----------|-----------------||-------------------------|-------0-----|-----------|-----------------|
~|----------|-----------|----------|---------------|-12-------12--||-4----2-4-|-5\--------|----------|--------/12-12-|-------12-----||----------|-----1s=3--|-3s4------|-(4)-----------|--------------||----------|-----------|----------|---------------|--------------||----------|-----------|----------|---------------|--------------||----------|-----------|----------|---------------|--------------|
~~|-16-------12-|-16-----12-16--|----12-16----|||-------12----|-----12--------|-12----------|||-------------|---------------|-------------|||-------------|---------------|-------------|||-------------|---------------|-------------|||-------------|---------------|-------------||
4/4|---0-0--0--0---|-----------0-2-|-4-5-5-4-2-4p2-0----||-0-----------4-|-2--2--2-4-----|--------------------||---------------|---------------|--------------------||---------------|---------------|--------------------||---------------|---------------|--------------------||---------------|---------------|--------------------|
~~~~~~~~~~~~~~~~~~~~~~~~~~~~~~|------------------|------------|------------||-4b5==(4)----4----|-(4)--------|-(4)--------||------------------|------------|------------||------------------|------------|------------||------------------|------------|------------||------------------|------------|------------|
\7 \7 ~~~~~~|--------------|-0--2-/4-5-7-(7)--|-7-------------||-(4)------0-0-|------------------|---------------||--------------|------------------|---------------||--------------|------------------|---------0-----||--------------|------------------|---------0-----||--------------|------------------|---------0-----|
~~~~~~|-0-2-4s=5p4h5p4s2h4p2h4p|=2p0-(0)------||------------------------|--------------||------------------------|--------------||------------------------|--------------||------------------------|--------------||------------------------|--------------|
|-0-----------|--------------|-------0----|-(0)----*||----------5--|-(5)-----8----|-10----0----|-(0)----*||------2/--6--|-(6)-----9----|-11----1----|-(1)----*||------3/--7--|-(7)----10----|-12----2----|-(2)----*||----------7--|-(7)----10----|-12----2----|-(2)----*||----------5--|-(5)-----8----|-10----0----|-(0)----*|
*************************************************************************************** * Generated using Power Tab Editor by Brad Larsen - http://powertab.guitarnetwork.org * ***************************************************************************************
Tap to rate this tab
 
# A B C D E F G H I J K L M N O P Q R S T U V W X Y Z