Message Of Love tab with lyrics by Jimi Hendrix - Easy chords and tabs for guitar

Jimi Hendrix – Message Of Love tab

Message Of Love

Artist: Jimi Hendrix

Intro:--------------------------------------------------------------------|--------------------------------------------------------------------|------2-2-3-3-4-4-5-5-6-6-7-7-8-8-9-9-10-10-11-11-12-12-13-13-14-14-|--------------------------------------------------------------------|-12\--0-0-1-1-2-2-3-3-4-4-5-5-6-6-7-7-8--8--9--10-10-10-11-11-12-12-|--------------------------------------------------------------------|
-------------------|-------------------|-15-15-16-16-17-17-|-------------------|-13-13-14-14-15-15-|-------------------|
-13-12\--------------------------------14------14-----14------14-|-13-12\------------------12-10-----------------------------------|-10--9\------------------12-11----13/14---13/14--13/14---13/14---|-10--9\--------12--------12-12-----------------------------------|---------12/14---------------------------------------------------|------------------10-10------------------------------------------|
-13-12\---------------------------/14-14-14\-|-13-12\------------------12-10---------------|-10--9\------------------12-11----/14-14-14\-|-10--9\---------12-------12-12---------------|----------12/14------------------------------|-------------------10-10---------------------|
verse:2x-13-12-----------------------------------|-13-12\-------------------12-10-------10-|-10--9\-------------------12-11-------11-|-10--9\--------12---------12-12-------12-|---------12/14---------------------------|------------------10-10--------10-10-----|
First break :--------------------------------------------------------------------------------------|-----------------------10-12(13)-10----------------------------------10------13(15)~~-|-12-13-14--------------10-12(13)-10---------12(13)(14)12---------------10-12p10-------|---------12p10---10-12----------------10-12------------12p10---10-12------------------|--------------12--------------------12----------------------12------------------------|--------------------------------------------------------------------------------------|
2nd&3rd breaks4X--------------------------------------|--------------------------------------|-12p10--12p10--10---------------------|------12-----12----12p10--12p10--10---|------------------------12-----12-----|--------------------------------------|
bridge:2X-------10-----------------------8------10------------------8----8---------|-------10-------12------10------8------10-------12-----10--8h10-8---------|-------11-------12------10------9------11-------12-----10---------10p9----|-------12-------12------10-----10------12-------12-----10--------------10-|----------10-10-----8-8------------------10-10-----8-8--------------------|-10-10---------------------8-8----10-10-----------------------------------|
Bridge 2 (sing along with notes):----------------------------|------------------------------|----------------------------|------------------------------|------------12(14)-12-10----|------------------------------|---10-11-12--------------12-|-/12-10-----12p10-12p10-12p10-|-12-------------------------|--------12~-------------------|----------------------------|------------------------------|
----------------------------|----------------------------|-------13-------------------|----------------------------|-12(14)-(14)12-10-----------|----------------------------|-------------------12-10----|-12p10----10t12-10t12-10t12-|-------------------------12-|------12--------------------|----------------------------|----------------------------|
------------------------------------|----------------------------|-------13-------13------------------|----------------------------|-12(14)---12(14)--(14)12-10---------|----------------------------|----------------------------12p10---|-12p10----10t12-10t12-10t12-|----------------------------------10|------12--------------------|------------------------------------|----------------------------|
"everybody come alive..."------------------------------------------------------------------------------|10(11)----------12(13)-10-12p10-----------------------------------------10----|10(11)---10-----12(13)-10-12p10-----------10(11)-10(11)-----------------10----|------12-10-12~-----------------12-10-12~---------------12~-10-12-10-12---12~-|------------------------------------------------------------------------------|------------------------------------------------------------------------------|
solo:2x||-10--10---------------------------/10--10-10---/14-14-13-12\-||||-10--10--12--10-------------------/10--10-10-----------------||||-11--11--12--11----/14-14-14-14\--/11--11-11---/14-14-13-12\-||||-12--12--12--12-------------------/12--12-12-----------------||||---------10--------/15-15-15-15\-----------------------------||||-10--10---------------------------/10--10-10-----------------||
-13-12----------10--------10--------10-------------------------------|-13-12--------10--------10--------10-------10------10-----10------10-|-10-9---12(14)----12(14)----12(14)----10h11---10h11--10h11---10h11---|-10-9----------------------------------------------------------------|---------------------------------------------------------------------|---------------------------------------------------------------------|
--------10--------10--------10-------10-----------------------------------|------10--------10--------10-------10----13(15)~-10h13p10------10---------|-12(14)----12(14)----12(14)---12(14)---------------------12(14)--(14)12---|-----------------------------------------------------------------------12-|--------------------------------------------------------------------------|--------------------------------------------------------------------------|
--------10-----------10------10h13p10----10h13p10----10h13p10----10h13p10----|------10--13p10--------13p10----------10----------10----------10----------10-|-12(14)--------12(14)--------------------------------------------------------|-----------------------------------------------------------------------------|-----------------------------------------------------------------------------|-----------------------------------------------------------------------------|
-13-13-13-13-13p10--13p10--13p10--13p10---13p10--------------------10-|------------------10-----10-----10-----10------13p10-------------10---|----------------------------------------------------12p10--12(14)-----|---------------------------------------------------------12-----------|----------------------------------------------------------------------|----------------------------------------------------------------------|
-------15(17)15-15~-15~-15(17)15-13h15p13-----------------------------------|-13(15)----------------------------------15p13--13(15)-13(15)----13(15)-----|----------------------------------------------14-------------12-------12----|----------------------------------------------------------------15-------15-|----------------------------------------------------------------------------|----------------------------------------------------------------------------|
-------------------------------------------------------|-13(15)------13(15)------------------------------------|-------12-10-------12-10-12(14)12-10-12(14)12-10---10~-|-------------------------------------------------12----|-------------------------------------------------------|-------------------------------------------------------|
-14-14-10--13-13-10-10-----------------------------------------------|-------10--13-13-10-10-12-12-10-10-----------------------------------|-14-14-11--------------12-12-10-10-12-12-10-10-----------------------|-----------------------------------12-12-10-10-12-12-10-10-8-8-------|-----------------------------------------------12-12-10-10-8-8-12-12-|---------------------------------------------------------------10-10-|
4x||------------------------------------||---------------|||------------------------------------||13(15)-13(15)~-|||------------------------------------||---------------|||-12-12-12-12p10------12-12-12-12-12-||---------------|||----------------12------------------||---------------|||-10-10-10------------10-10-10-10-10-||---------------|
Outro:4X-----------------------------|-12-----12-----13(15)-(15)~~-|-12p10--12p10----------------|------12-----12--------------|-----------------------------|-----------------------------|
2x------------------------------|-12-----12-----12-----12------|-12p10--12p10--12p10--12p10---|------12-----12-----12-----12-|------------------------------|------------------------------|
---------------------------------------------------------|---------------------------------------------------------|-2-2-3-3-4-4-5-5-6-6-7-7-8-8-9-9-10-10-11-11-12-12-13-13-|---------------------------------------------------------|-0-0-1-1-2-2-3-3-4-4-5-5-6-6-7-7--8--8-9--9--10-10-11-11-|---------------------------------------------------------|
-------------------------|-------------------------|-14-14-15-15-16-16-17-17-|-------------------------|-12-12-13-13-14-14-15-15-|-------------------------|
Please rate this tab:
x1.0