The Wind Cries Mary tab ver. 2 with lyrics by Jimi Hendrix for guitar @ Guitaretab

Jimi Hendrix – The Wind Cries Mary tab ver. 2

The wind cries Mary - Solo

This is the solo of one of my favorite songs of Hendrix.
It is for beginners, and is similar but not identical 
to the original. I hope you appreciate.

Standard tuned

\ = slide down
/ = slide up
b = full bending
h = hammer on
p = pull off
v = vibrato


|--13\------------------------||--13\------------------------||-------12h14---12-----12h14--||------------------15---------||-----------------------------||-----------------------------|
|-----------------------------||-----------------------------||------10h12---10h12---10\(8)-||-9/12------------------------||-----------------------------||-----------------------------|
|--13\------------------------||--13\------------------------||-------12h14---12-----12h14--||------------------15---------||-----------------------------||-----------------------------|
|-----------------------------||-----------------------------||------10h12---10h12----------||-9/12---------------10h12v---||-----------------------------||-----------------------------|
|-----------------------------||--15h17p15-------------------||-----------14h16p14-----14h16||---------------------17------||-----------------------------||-----------------------------|
|-----------------------------||-----------------------------||-14h16-----7h8-7h8--8-7-8-7--||---------8------------------8||-----------------------------||-----------------------------|
|---------------9-------------||--12b-9------9---------------||--------11b------11b---9v----||-----------------------------||-----------------------------||-----------------------------|
|-----------------------------||-13h15-13h15-----------------||-------------12h14-----12h14-||-------------------15--------||-----------------------------||-----------------------------|
|-----------------------------||-----------------------------||-------10--------------------||-10h12----12-10--------------||-----------------13-----12v--||-----------------------------|
Please rate this tab:
x1.0