Jimmy Eat World - Crimson And Clover tab

Hello My name is JORDAN and this song is simple once you get the rythem.
now heres the song.

Jimmy Eat World
Crimson and Clovers

Guitar 1(EADGBe)
Guitar 2(EADGBe)

Intro

G1|-------------------------------------------------------------------||-------------------------------------------------------------------||-------------------------------------------------------------------||-------------------------------------------------------------------||-------------------------------------------------------------------||-------------------------------------------------------------------|
G2|-------------------------------------------------------------------||-------------------------------------------------------------------||-------------------------------------------------------------------||-7---7---7---7-7-7-7-7---7---7-7-7---7---7---7-7-7-7-7---7---7-7||-7---7---7---7-7-7-7-7---7---7-7-7---7---7---7-7-7-7-7---7---7-7||-5---5---5---5-5-5-5-5---5---5-5-5---5---5---5-5-5-5-5---5---5-5|
G1|----------------------------------------------------------------||-3---3---3---3-3-3-3-3---3---3-3-3---3---3---3-3-3-3-3---3---3-3||-2---2---2---2-2-2-2-2---2---2-2-2---2---2---2-2-2-2-2---2---2-2||-0---0---0---0-0-0-0-0---0---0-0-0---0---0---0-0-0-0-0---0---0-0||----------------------------------------------------------------||----------------------------------------------------------------|
G2|----------------------------------------------------------------||----------------------------------------------------------------||----------------------------------------------------------------||-7---7---7---7-7-7-7-7---7---7-7-7---7---7---7-7-7-7-7---7---7-7||-7---7---7---7-7-7-7-7---7---7-7-7---7---7---7-7-7-7-7---7---7-7||-5---5---5---5-5-5-5-5---5---5-5-5---5---5---5-5-5-5-5---5---5-5|
Both guitars|----------------------------------------------------------------||----------------------------------------------------------------||----------------------------------------------------------------||-7---7---7---7-7-7-7-7---7---7-7-7---7---7---7-7-7-7-7---7---7-7||-7---7---7---7-7-7-7-7---7---7-7-7---7---7---7-7-7-7-7---7---7-7||-5---5---5---5-5-5-5-5---5---5-5-5---5---5---5-5-5-5-5---5---5-5|
|----------------------------------------------------------------||----------------------------------------------------------------||----------------------------------------------------------------||-4---4---4---4-4-4-4-4---4---4-4-4---4---4---4-4-4-4-4---4---4-4||-4---4---4---4-4-4-4-4---4---4-4-4---4---4---4-4-4-4-4---4---4-4||-2---2---2---2-2-2-2-2---2---2-2-2---2---2---2-2-2-2-2---2---2-2|
|----------------------------------------------------------------||----------------------------------------------------------------||----------------------------------------------------------------||-7---7---7---7-7-7-7-7---7---7-7-7---7---7---7-7-7-7-7---7---7-7||-7---7---7---7-7-7-7-7---7---7-7-7---7---7---7-7-7-7-7---7---7-7||-5---5---5---5-5-5-5-5---5---5-5-5---5---5---5-5-5-5-5---5---5-5|
|----------------------------------------------------------------||----------------------------------------------------------------||----------------------------------------------------------------||-4---4---4---4-4-4-4-4---4---4-4-4---4---4---4-4-4-4-4---4---4-4||-4---4---4---4-4-4-4-4---4---4-4-4---4---4---4-4-4-4-4---4---4-4||-2---2---2---2-2-2-2-2---2---2-2-2---2---2---2-2-2-2-2---2---2-2|
|----------------------------------------------------------------||----------------------------------------------------------------||----------------------------------------------------------------||-7---7---7---7-7-7-7-7---7---7-7-7---7---7---7-7-7-7-7---7---7-7||-7---7---7---7-7-7-7-7---7---7-7-7---7---7---7-7-7-7-7---7---7-7||-5---5---5---5-5-5-5-5---5---5-5-5---5---5---5-5-5-5-5---5---5-5|
|----------------------------------------------------------------||----------------------------------------------------------------||----------------------------------------------------------------||-4---4---4---4-4-4-4-4---4---4-4-4---4---4---4-4-4-4-4---4---4-4||-4---4---4---4-4-4-4-4---4---4-4-4---4---4---4-4-4-4-4---4---4-4||-2---2---2---2-2-2-2-2---2---2-2-2---2---2---2-2-2-2-2---2---2-2|
|----------------------------------------------------------------||----------------------------------------------------------------||----------------------------------------------------------------||-7---7---7---7-7-7-7-7---7---7-7-7---7---7---7-7-7-7-7---7---7-7||-7---7---7---7-7-7-7-7---7---7-7-7---7---7---7-7-7-7-7---7---7-7||-5---5---5---5-5-5-5-5---5---5-5-5---5---5---5-5-5-5-5---5---5-5|
|----------------------------------------------------------------||----------------------------------------------------------------||----------------------------------------------------------------||-4---4---4---4-4-4-4-4---4---4-4-4---4---4---4-4-4-4-4---4---4-4||-4---4---4---4-4-4-4-4---4---4-4-4---4---4---4-4-4-4-4---4---4-4||-2---2---2---2-2-2-2-2---2---2-2-2---2---2---2-2-2-2-2---2---2-2|
|-----------------------------------------------------------------||-----------------------------------------------------------------||-----------------------------------------------------------------||-----------------------------------------------------------------||-2-2---2-2-2---2-4-4---4-4-4---4-7-7---7-7-7---7-7-7---7-7-7---7-||-0-0---0-0-0---0-2-2---2-2-2---2-5-5---5-5-5---5-5-5---5-5-5---5-| * * * * * * * * * * * * * * * * * * * * * * * *
|-----------------------------------------------------------------||-----------------------------------------------------------------||-----------------------------------------------------------------||-----------------------------------------------------------------||-2-2---2-2-2---2-4-4---4-4-4---4-7-7---7-7-7---7-7-7---7-7-7---7-||-0-0---0-0-0---0-2-2---2-2-2---2-5-5---5-5-5---5-5-5---5-5-5---5-| * * * * * * * * * * * * * * * * * * * * * * * *
|-----------------------------------------------------------------||-----------------------------------------------------------------||-----------------------------------------------------------------||-----------------------------------------------------------------||-2-2---2-2-2---2-4-4---4-4-4---4-7-7---7-4-4---4-2-2---2-2-2---2-||-0-0---0-0-0---0-2-2---2-2-2---2-5-5---5-2-2---2-0-0---0-0-0---0-| * * * * * * * * * * * * * * * * * * * * * * * *
|---------------------------------||---------------------------------||---------------------------------||---------------------------------||-2-2---2-2-2---2-4-4---4-4-4---4-||-0-0---0-0-0---0-2-2---2-2-2---2-| * * * * * * * * * * * *
G1|--------------------------------------------------------------------------||---------------------------------3---3---3---3-3-3-3-3---3---3-3----------||---------------------------------2---2---2---2-2-2-2-2---2---2-2----------||---------------------------------0---0---0---0-0-0-0-0---0---0-0----------||--------------------------------------------------------------------------||--------------------------------------------------------------------------|
G2|-----------------------------------------------------------------||-----------------------------------------------------------------||-----------------------------------------------------------------||-7---7---7---7-7-7-7-7---7---7-7-7---7---7---7-7-7-7-7---7---7-7-||-7---7---7---7-7-7-7-7---7---7-7-7---7---7---7-7-7-7-7---7---7-7-||-5---5---5---5-5-5-5-5---5---5-5-5---5---5---5-5-5-5-5---5---5-5-|
Both guitars|----------------------------------------------------------------||----------------------------------------------------------------||----------------------------------------------------------------||-7---7---7---7-7-7-7-7---7---7-7-7---7---7---7-7-7-7-7---7---7-7||-7---7---7---7-7-7-7-7---7---7-7-7---7---7---7-7-7-7-7---7---7-7||-5---5---5---5-5-5-5-5---5---5-5-5---5---5---5-5-5-5-5---5---5-5|
|----------------------------------------------------------------||----------------------------------------------------------------||----------------------------------------------------------------||-4---4---4---4-4-4-4-4---4---4-4-4---4---4---4-4-4-4-4---4---4-4||-4---4---4---4-4-4-4-4---4---4-4-4---4---4---4-4-4-4-4---4---4-4||-2---2---2---2-2-2-2-2---2---2-2-2---2---2---2-2-2-2-2---2---2-2|
|----------------------------------------------------------------||----------------------------------------------------------------||----------------------------------------------------------------||-7---7---7---7-7-7-7-7---7---7-7-7---7---7---7-7-7-7-7---7---7-7||-7---7---7---7-7-7-7-7---7---7-7-7---7---7---7-7-7-7-7---7---7-7||-5---5---5---5-5-5-5-5---5---5-5-5---5---5---5-5-5-5-5---5---5-5|
|----------------------------------------------------------------||----------------------------------------------------------------||----------------------------------------------------------------||-4---4---4---4-4-4-4-4---4---4-4-4---4---4---4-4-4-4-4---4---4-4||-4---4---4---4-4-4-4-4---4---4-4-4---4---4---4-4-4-4-4---4---4-4||-2---2---2---2-2-2-2-2---2---2-2-2---2---2---2-2-2-2-2---2---2-2|
|----------------------------------------------------------------||----------------------------------------------------------------||----------------------------------------------------------------||-7---7---7---7-7-7-7-7---7---7-7-7---7---7---7-7-7-7-7---7---7-7||-7---7---7---7-7-7-7-7---7---7-7-7---7---7---7-7-7-7-7---7---7-7||-5---5---5---5-5-5-5-5---5---5-5-5---5---5---5-5-5-5-5---5---5-5|
|----------------------------------------------------------------||----------------------------------------------------------------||----------------------------------------------------------------||-4---4---4---4-4-4-4-4---4---4-4-4---4---4---4-4-4-4-4---4---4-4||-4---4---4---4-4-4-4-4---4---4-4-4---4---4---4-4-4-4-4---4---4-4||-2---2---2---2-2-2-2-2---2---2-2-2---2---2---2-2-2-2-2---2---2-2|
|----------------------------------------------------------------||----------------------------------------------------------------||----------------------------------------------------------------||-7---7---7---7-7-7-7-7---7---7-7-7---7---7---7-7-7-7-7---7---7-7||-7---7---7---7-7-7-7-7---7---7-7-7---7---7---7-7-7-7-7---7---7-7||-5---5---5---5-5-5-5-5---5---5-5-5---5---5---5-5-5-5-5---5---5-5|
|----------------------------------------------------------------||----------------------------------------------------------------||----------------------------------------------------------------||-4---4---4---4-4-4-4-4---4---4-4-4---4---4---4-4-4-4-4---4---4-4||-4---4---4---4-4-4-4-4---4---4-4-4---4---4---4-4-4-4-4---4---4-4||-2---2---2---2-2-2-2-2---2---2-2-2---2---2---2-2-2-2-2---2---2-2|
|-----------------------------------------------------------------||-----------------------------------------------------------------||-----------------------------------------------------------------||-----------------------------------------------------------------||-2-2---2-2-2---2-4-4---4-4-4---4-7-7---7-7-7---7-7-7---7-7-7---7-||-0-0---0-0-0---0-2-2---2-2-2---2-5-5---5-5-5---5-5-5---5-5-5---5-| * * * * * * * * * * * * * * * * * * * * * * * *
|-----------------------------------------------------------------||-----------------------------------------------------------------||-----------------------------------------------------------------||-----------------------------------------------------------------||-2-2---2-2-2---2-4-4---4-4-4---4-7-7---7-7-7---7-7-7---7-7-7---7-||-0-0---0-0-0---0-2-2---2-2-2---2-5-5---5-5-5---5-5-5---5-5-5---5-| * * * * * * * * * * * * * * * * * * * * * * * *
|-----------------------------------------------------------------||-----------------------------------------------------------------||-----------------------------------------------------------------||-----------------------------------------------------------------||-2-2---2-2-2---2-4-4---4-4-4---4-7-7---7-4-4---4-2-2---2-2-2---2-||-0-0---0-0-0---0-2-2---2-2-2---2-5-5---5-2-2---2-0-0---0-0-0---0-| * * * * * * * * * * * * * * * * * * * * * * * *
|---------------------------------||---------------------------------||---------------------------------||---------------------------------||-2-2---2-2-2---2-4-4---4-4-4---4-||-0-0---0-0-0---0-2-2---2-2-2---2-| * * * * * * * * * * * *
G1|--------------------------------------------------------------------------||---------------------------------3---3---3---3-3-3-3-3---3---3-3----------||---------------------------------2---2---2---2-2-2-2-2---2---2-2----------||---------------------------------0---0---0---0-0-0-0-0---0---0-0----------||--------------------------------------------------------------------------||--------------------------------------------------------------------------|
G2|-----------------------------------------------------------------||-----------------------------------------------------------------||-----------------------------------------------------------------||-7---7---7---7-7-7-7-7---7---7-7-7---7---7---7-7-7-7-7---7---7-7-||-7---7---7---7-7-7-7-7---7---7-7-7---7---7---7-7-7-7-7---7---7-7-||-5---5---5---5-5-5-5-5---5---5-5-5---5---5---5-5-5-5-5---5---5-5-|
Both Guitars|-----------------------------------------------------------------||-----------------------------------------------------------------||-----------------------------------------------------------------||-7---7---7---7-7-7-7-7---7---7-7-2---2---2---2-2-2-2-2---2---2-2-||-7---7---7---7-7-7-7-7---7---7-7-2---2---2---2-2-2-2-2---2---2-2-||-5---5---5---5-5-5-5-5---5---5-5-0---0---0---0-0-0-0-0---0---0-0-|
|-----------------------------------------------------------------||-----------------------------------------------------------------||-----------------------------------------------------------------||-4---4---4---4-4-4-4-4---4---4-4-7---7---7---7-7-7-7-7---7---7-7-||-4---4---4---4-4-4-4-4---4---4-4-7---7---7---7-7-7-7-7---7---7-7-||-2---2---2---2-2-2-2-2---2---2-2-5---5---5---5-5-5-5-5---5---5-5-|
|-----------------------------------------------------------------||-----------------------------------------------------------------||-----------------------------------------------------------------||-7---7---7---7-7-7-7-7---7---7-7-2---2---2---2-2-2-2-2---2---2-2-||-7---7---7---7-7-7-7-7---7---7-7-2---2---2---2-2-2-2-2---2---2-2-||-5---5---5---5-5-5-5-5---5---5-5-0---0---0---0-0-0-0-0---0---0-0-|
|-----------------------------------------------------------------||-----------------------------------------------------------------||-----------------------------------------------------------------||-4---4---4---4-4-4-4-4---4---4-4-7---7---7---7-7-7-7-7---7---7-7-||-4---4---4---4-4-4-4-4---4---4-4-7---7---7---7-7-7-7-7---7---7-7-||-2---2---2---2-2-2-2-2---2---2-2-5---5---5---5-5-5-5-5---5---5-5-|
G1|-----------------------------------------------------------------||-3---3---3---3-3-3-3-3---3---3-3-3---3---3---3-3-3-3-3---3---3-3-||-2---2---2---2-2-2-2-2---2---2-2-2---2---2---2-2-2-2-2---2---2-2-||-0---0---0---0-0-0-0-0---0---0-0-0---0---0---0-0-0-0-0---0---0-0-||-----------------------------------------------------------------||-----------------------------------------------------------------|
G2|-----------------------------------------------------------------||-----------------------------------------------------------------||-----------------------------------------------------------------||-7---7---7---7-7-7-7-7---7---7-7-2---2---2---2-2-2-2-2---2---2-2-||-7---7---7---7-7-7-7-7---7---7-7-2---2---2---2-2-2-2-2---2---2-2-||-5---5---5---5-5-5-5-5---5---5-5-0---0---0---0-0-0-0-0---0---0-0-|
G1|-----------------------------------------------------------------||-3---3---3---3-3-3-3-3---3---3-3-3---3---3---3-3-3-3-3---3---3-3-||-2---2---2---2-2-2-2-2---2---2-2-2---2---2---2-2-2-2-2---2---2-2-||-0---0---0---0-0-0-0-0---0---0-0-0---0---0---0-0-0-0-0---0---0-0-||-----------------------------------------------------------------||-----------------------------------------------------------------|
G2|-----------------------------------------------------------------||-----------------------------------------------------------------||-----------------------------------------------------------------||-4---4---4---4-4-4-4-4---4---4-4-7---7---7---7-7-7-7-7---7---7-7-||-4---4---4---4-4-4-4-4---4---4-4-7---7---7---7-7-7-7-7---7---7-7-||-2---2---2---2-2-2-2-2---2---2-2-5---5---5---5-5-5-5-5---5---5-5-|
G1|-----------------------------------------------------------------||-3---3---3---3-3-3-3-3---3---3-3-3---3---3---3-3-3-3-3---3---3-3-||-2---2---2---2-2-2-2-2---2---2-2-2---2---2---2-2-2-2-2---2---2-2-||-0---0---0---0-0-0-0-0---0---0-0-0---0---0---0-0-0-0-0---0---0-0-||-----------------------------------------------------------------||-----------------------------------------------------------------|
G2|-----------------------------------------------------------------||-----------------------------------------------------------------||-----------------------------------------------------------------||-7---7---7---7-7-7-7-7---7---7-7-2---2---2---2-2-2-2-2---2---2-2-||-7---7---7---7-7-7-7-7---7---7-7-2---2---2---2-2-2-2-2---2---2-2-||-5---5---5---5-5-5-5-5---5---5-5-0---0---0---0-0-0-0-0---0---0-0-|
G1|-----------------------------------------------------------------||-3---3---3---3-3-3-3-3---3---3-3-3---3---3---3-3-3-3-3---3---3-3-||-2---2---2---2-2-2-2-2---2---2-2-2---2---2---2-2-2-2-2---2---2-2-||-0---0---0---0-0-0-0-0---0---0-0-0---0---0---0-0-0-0-0---0---0-0-||-----------------------------------------------------------------||-----------------------------------------------------------------|
G2|-----------------------------------------------------------------||-----------------------------------------------------------------||-----------------------------------------------------------------||-4---4---4---4-4-4-4-4---4---4-4-7---7---7---7-7-7-7-7---7---7-7-||-4---4---4---4-4-4-4-4---4---4-4-7---7---7---7-7-7-7-7---7---7-7-||-2---2---2---2-2-2-2-2---2---2-2-5---5---5---5-5-5-5-5---5---5-5-|
Both Guitars|-----------------------------------------------------------------||-----------------------------------------------------------------||-----------------------------------------------------------------||-2---2---2---2-2-4---4---4---4-4-7---7---7---7-7-7-7-7---7---7-7-||-2---2---2---2-2-4---4---4---4-4-7---7---7---7-7-7-7-7---7---7-7-||-0---0---0---0-0-2---2---2---2-2-5---5---5---5-5-5-5-5---5---5-5-|
|-----------------------------------------------------------------||-----------------------------------------------------------------||-----------------------------------------------------------------||-2---2---2---2-2-4---4---4---4-4-7---7---7---7-7-7-7-7---7---7-7-||-2---2---2---2-2-4---4---4---4-4-7---7---7---7-7-7-7-7---7---7-7-||-0---0---0---0-0-2---2---2---2-2-5---5---5---5-5-5-5-5---5---5-5-|
|-----------------------------------------------------------------||-----------------------------------------------------------------||-----------------------------------------------------------------||-2---2---2---2-2-4---4---4---4-4-7---4---2---2---2---2-2-2-2-2---||-2---2---2---2-2-4---4---4---4-4-7---4---2---2---2---2-2-2-2-2---||-0---0---0---0-0-2---2---2---2-2-5---2---0---0---0---0-0-0-0-0---|
|-----------------------------------------------------||-----------------------------------------------------||-----------------------------------------------------||-2-2-4---4---4---4-4-7---7---7---7-7-7-7-7---7---7-7-||-2-2-4---4---4---4-4-7---7---7---7-7-7-7-7---7---7-7-||-0-0-2---2---2---2-2-5---5---5---5-5-5-5-5---5---5-5-|
|-----------------------------------------------------------------||-----------------------------------------------------------------||-----------------------------------------------------------------||-2---2---2---2-2-4---4---4---4-4-7---7---7---7-7-7-7-7---7---7-7-||-2---2---2---2-2-4---4---4---4-4-7---7---7---7-7-7-7-7---7---7-7-||-0---0---0---0-0-2---2---2---2-2-5---5---5---5-5-5-5-5---5---5-5-|
|-----------------------------------------------------------------||-----------------------------------------------------------------||-----------------------------------------------------------------||-2---2---2---2-2-4---4---4---4-4-7---4---2---2---2---2-2-2-2-2---||-2---2---2---2-2-4---4---4---4-4-7---4---2---2---2---2-2-2-2-2---||-0---0---0---0-0-2---2---2---2-2-5---2---0---0---0---0-0-0-0-0---|
|-----------------------------------------------------||-----------------------------------------------------||-----------------------------------------------------||-2-2-4---4---4---4-4-7---7---7---7-7-7-7-7---7---7-7-||-2-2-4---4---4---4-4-7---7---7---7-7-7-7-7---7---7-7-||-0-0-2---2---2---2-2-5---5---5---5-5-5-5-5---5---5-5-|
|---------------------------------||---------------------------------||---------------------------------||-7---7---7---7-7-7-7-7---7---7-7-||-7---7---7---7-7-7-7-7---7---7-7-||-5---5---5---5-5-5-5-5---5---5-5-|
G1|-----------------------------------------------------------------||-3---3---3---3-3-3-3-3---3---3-3-3---3---3---3-3-3-3-3---3---3-3-||-2---2---2---2-2-2-2-2---2---2-2-2---2---2---2-2-2-2-2---2---2-2-||-0---0---0---0-0-0-0-0---0---0-0-0---0---0---0-0-0-0-0---0---0-0-||-----------------------------------------------------------------||-----------------------------------------------------------------|
G2|-----------------------------------------------------------------||-----------------------------------------------------------------||-----------------------------------------------------------------||-7---7---7---7-7-7-7-7---7---7-7-7---7---7---7-7-7-7-7---7---7-7-||-7---7---7---7-7-7-7-7---7---7-7-7---7---7---7-7-7-7-7---7---7-7-||-5---5---5---5-5-5-5-5---5---5-5-5---5---5---5-5-5-5-5---5---5-5-|
G1|---------||-3--3---3||-2--2---2||-0--0---0||---------||---------|
G2|---------||---------||---------||-7--7---7||-7--7---7||-5--5---5|
Ledgend * = palm mute Thats it i hope you keep playing ROCK ON!!!!!
Tap to rate this tab
 
# A B C D E F G H I J K L M N O P Q R S T U V W X Y Z