Rock And Roll tab with lyrics by Jimmy Page - Easy chords and tabs for guitar

Jimmy Page – Rock And Roll tab

-------------------------------------------------------------------------------
			   ROCK AND ROLL - Jimmy Page (Led Zeppelin)
-------------------------------------------------------------------------------
·Tabbed: Sebastián A. (playing.the.angel_@hotmail.com)
·Buenos Aires, Argentina, 2009.

EADGBe tuning

|----------------------------------------------------------||----------------------------------------------------------||----------------------------------5!2---------------------||----------------------------------------5p2---------------||-3p0-----3p0----3p0-3-3p0-----3p0-----------5-3-(3)-0---0-||-------3-----3------------3---------------------------3---|
|-----------------------------------------------------------------||-----------------------------------------------------------------||---------------------------------------2p0-----4b5p0---5b6-2p0---||-------------2p=0----------0---2p0---0-------2-------0---------0-||-----0-3p0---------0-3p0-3---------------------------------------||-3---------3-----------------------------------------------------|
|------------------5-----|-------------------------||------------------------|-------------------------||-0-5-5s7---5--7b9---7b9r|=(7)p5---7-5b7---------5-||------------------------|-------7--------7--5-7---||------------------------|-------------------------||------------------------|-------------------------|
|-----------5----------5----------||-------------5-----5----5h8p5----||-7b9==(7)r---7pb8-------------6--||---------------------------------||---------------------------------||---------------------------------|
|----------------------------------------||-6h9p6-----7h10p7-----11p8----9h12p9----||---------8----------9------10--------11-||----------------------------------------||----------------------------------------||----------------------------------------|
|-------------------------------------------|-------------------------------||-10h13p10----10---10--13b17==(13)r(13)b17==|=(13)r-----10----13--12-10-----||----------12----0--------------------------|--------------12-----------11--||-------------------------------------------|-------(0)---------------------||-------------------------------------------|-------------------------------||-------------------------------------------|-------------------------------|
|--------------------------------||-12b14---12-10-(10)-10----12b14-||-----------------------11-------||--------------------------------||--------------------------------||--------------------------------|
|------------------------|------------12------------------||---12-10----12----10-12-|-10------10-----12b14==(12)r-10-||---------11----11-------|------11------------------------||------------------------|--------------------------------||------------------------|--------------------------------||------------------------|--------------------------------|
|---------------15----15-----15-----||-(10)---15b17--15b17-15b17--15b17==||-----------------------------------||-----------------------------------||-----------------------------------||-----------------------------------|
|-(15)----16----(16)-----(16)---------|----------------------------||-(15)r---15b17r(15)b17==(15)r--15-13-|-15-15pb17-13b14------------||-------------------------------------|-------------------14\------||-------------------------------------|----------------------------||-------------------------------------|----------------------------||-------------------------------------|----------------------------|
|-----------------------------8b9==|=(8)r-5-----------------||-8p5------8p5-----8p5------5------|---------5---5----------||-------7--------7-------7---------|-----------7---7\-------||----------------------------------|------------------------||----------------------------------|------------------------||----------------------------------|------------------------|
|---------------------------------|-------------------------------------||-5h8p5---5h8p5---5h8p5---5h8p5---|-5h8p5---5h8p5---5h8p5---5h8p5-------||-------7-------7-------7-------7-|-------7-------7-------7-------7p(0)-||---------------------------------|-------------------------------------||---------------------------------|-------------------------------------||---------------------------------|-------------------------------------|
|------------------------|-----------------------||------------------------|--------------------^7-||-9s7-------------5-7----|--5---------------7-^7-||------------------------|------7-----(7)--------||------------------------|-----------------------||------------------------|-----------------------|
|------------------------|------------------------|||-(7)-------------5-7----|--5-------------x-------|||-(7)-------------5-7----|--5-------------x-------|||------------------------|------7-----(7)-x-------|||------------------------|------------------------|||------------------------|------------------///---||
Please rate this tab:
x1.0