Stairway To Heaven tab with lyrics by Jimmy Page - Easy chords and tabs for guitar

Jimmy Page – Stairway To Heaven tab

b  = full bend
br = bend and release
v  = vibrato
/  = slide up
p  = pull-off
h  = hammer-on

|----5---------------------|----8-8-8b--8p5------8-10p8--------------||------8-5-----------------|-8b-------------8/10--------10-8----8h10-||-7b-------7-5---7-5-------|---------------------------------10------||--------------7-----7-5---|-----------------------------------------||------------------------8-|-----------------------------------------||--------------------------|-----------------------------------------|
|------5-----------------------------------||----5---8p5-------------------------------||-7b---------7-5---7-5-----------5---5-5p0-||----------------7-----7-5---5-7---7-------||--------------------------7---------------||------------------------------------------|
|-5--------------------------||---8-5----------------------||-------7-5---7-5------------||-----------7-----7-5-7-5----||-------------------------8v-||----------------------------|
|--------------------|-------------------||--------------------|----------------13-||--------------------|-------12-12h14----||-----10h12p10----10-|-12/14-------------||-/12----------12----|-------------------||--------------------|-------------------|
|--------------------|-15b-15p13-||-15b-15p13-15p13----|-----------||-----------------14-|-----------||--------------------|-----------||--------------------|-----------||--------------------|-----------|
Repeat this 12 times|----------------||-15br-p13----13-||----------14----||----------------||----------------||----------------|
|-15b-12-15-12--------------------------------15-------------||--------------15-13----13-15-13----13-15-15b----15br-p13----||--------------------14----------14-----------------------14-||------------------------------------------------------------||------------------------------------------------------------||------------------------------------------------------------|
|-----15-17p15-------------------------||-15b----------15br-13-15-13----13-15b-||----------------------------14--------||--------------------------------------||--------------------------------------||--------------------------------------|
|-------------------------||-------------------------||-14b-14b-14-12-14-12-14v-||-------------------------||-------------------------||-------------------------|
|-----------------------------||-----5-------5---------------||-10b---7-5-7---7-5-7-8-7-5---||---------------------------7-||-----------------------------||-----------------------------|
|- 6 times --||-----|--20p17-----|-----||-/17-|--------17--|-20b-||-----|------------|-----||-----|------------|-----||-----|------------|-----||-----|------------|-----|
Please rate this tab:
x1.0