Joaquin Rodrigo - Fantasia Para Un Gentilhombre Complete tab

#----------------------------------PLEASE NOTE--------------------------##
#This file is the author's own work and represents their interpretation ##
#of the song. You may only use this file for private study, scholarship,##
#or research.                                                           ##
#-----------------------------------------------------------------------##

                          

			   FANTASIA PARA UN GENTILHOMBRE
				by Joaquin Rodrigo

				Tab by John Mason
				  October 2003


Having fully transcribed Rodgigo's 'Concierto de Aranjuez' last year,I had
many messages from people asking if I could transcribe this great piece.
Here it is! It's very long and it's very difficult!

Its impossible to indicate timing and phrasing with TAB, but the length of
the bars will hopefully help you navigate around this transcription. Also,
barre chords are indicated where the left-hand fingering isn't immediately
obvious. 


Feedback and questions are most welcome at:


johnmason007@hotmail.com


Happy Playing!!! 

John M
--------------------------------------------------------------------------
--------------------------------------------------------------------------

NOTES:-

* The bars are numbered as in the musical score; shown beneath the first
  bar of each stave.
* The length of orchestral breaks are indicated as "orch # bars".
* "4tr6" is a rapid trill hammering (in this example) from fret 4 to 6.
* Slide up = /
* Slide down = \
* All standard tuning EXCEPT for the last movement Canarios (bottom E to D)
* "F5" = full barre at fret 5 (shown above the bar)
* "H5" = half barre at fret 5 (shown above the bar)
* "n.h" = natural harmonic
* "a.h" = artificial harmonic
* Hammer-on = h; Pull-off = p


--------------------------------------------------------------------------
--------------------------------------------------------------------------



PART 1:
Villano y Ricercare 

(Villano)

H2======= |---|-5----5----|-5-------|-5----4----|-5----------|-----------2h4p2-0---||---|-2----3----|-2-------|-7----3----|-2-------0--|-2h3p2-0-2---------3-||---|-2----2----|-2-------|-7----4----|-2----2-----|-2---------2---------||---|-2----4----|-2-------|-0----2----|-2----------|-2-------------------||---|-0----0----|-0-------|------2----|-0----------|-0---------0---------||---|-----------|---------|------0----|------------|---------------------|[1]
|-0h2p0---5-3-2-0-|-2-0-----------------|-------------|-5----0----||-2---------------|-----3-2-0h2p0-------|-------------|-2----0----||-----------------|-2-0-------------2-1-|-2-----------|-2----0----||-2---------------|-----4-2-4-----2-2-0-|-------------|-2----2----||-0---------------|---------------------|-5-4-2-0-----|-0----2----||-----------------|---------------------|-------------|------0----|[7]
H9==================== H10==|-0----9------------|-10-9-------12---------|-12--------||-2------12-10------|------12-10--9---------|-10--------||-2------------12---|-11------------11-9----|-----------||-2-----------------|--------------------12-|-11--------||-0-----------------|-----------------------|-----------||-------------------|-----------------------|-----------|[11]
|----------------|-------------14----14-----||-----10-9-10-12-|-14-14-12-14--------------||----------------|----------------14----14--||----------------|--------------------------||----------------|--------------------------||----------------|--------------------------|[14]
|-12-------9-10-12-14-16-17-16-14----||----10-12------------------------17-||------------------------------------||------------------------------------||------------------------------------||------------------------------------|[16]
|-10-9-------12-10-9----|------------------------||------12-10---------12-|-10---------------------||-----------------------|----12-11-9-12-11-9-----||-----------------------|--------------------12--||-----------------------|------------------------||-----------------------|------------------------|[17]
|-12--------------9-10-----------------||---------9-10-12--------------9-10-12-||----9-11-----------------9-11---------||----------------------12--------------||--------------------------------------||--------------------------------------|[19]
|-9-12-10-9---------------------------------||-----------12-10-9-------------------------||-------------------11-9-11-9---------------||-----------------------------12-11-9-------||-------------------------------------12-10-||-------------------------------------------|[20]
|--------------------------------------------||--------------------------------------------||---11-9---------------13-11-9---------------||--------12-11-9---------------12-11-9-------||-9--------------12-11-----------------12-11-||--------------------------------------------|[21]
|-------7----|-5----------|----------|---------||-------5----|-5----7-----|-5--------|---------||-------4----|-6----7-----|-6--------|--orch---||------------|-7----7-----|-6--------|--1 bar--||-12---------|-0----5-----|-4--------|---------||-------4----|---------7--|----------|---------|
[22]
|-----0----|-0----2--0--|-0--------|---------|-----5-7-5h7p5h7-||-----2----|-0----3--0--|-2--------|---------|-----------------||-----2----|-1----2--1--|-2--------|--orch---|-----6-----------||-----2----|-2----0--2--|-2--------|--1 bar--|-----------------||-----0----|-2----------|-0--------|---------|-----0-----------||----------|-0----------|----------|---------|-----------------|[26]
H2===================== F2=========|-4-5-4h5p4h5-2-4-2h4p2h4-|-0-2-0h2p0h2-------------||-------------------------|-------------3-5-3h5p3h5-||-4-----------2-----------|-2-----------2-----------||-2-----------0-----------|-------------------------||-------------------------|-4-----------------------||-------------------------|-------------2-----------|[31]
|-------------------------|-5----------------12-9-12-9-||-2-3-2h3p2h3-0-2-0h2p0h2-|-2----10-12-10-12-----------||-1-----------1-----------|-2--------------------------||-------------------------|-2--------------------------||-------------------------|-0--------------------------||-0-----------0-----------|----------------------------|[33]
|----------12-9-12-9---------12-9-12-9|--------12-9-12-9---------12-9-12-9||9-10-9-10-----------7-9-7-9----------|5-7-5-7----------------------------||-------------------------------------|------------------7-9-7-9----------||-------------------------------------|-----------------------------------||-------------------------------------|-----------------------------------||-------------------------------------|-----------------------------------|[35]
|---------12-9-12-9-----------12-9-12-9-|-----------||---------------------------------------|-10--------||-6-7-6-7-------------------------------|-----------||-------------------9-11-9-11-----------|-----------||---------------------------------------|-----------||---------------------------------------|-----------|[37]
F7======================= F10=======|---------|-----0---2---|-4-------9---7---|-7h9p7--------12-10-------||---------|-------0---0-|---0-7-9-------10|--------------------14-12-||--orch---|-------------|-----------------|--------------------------||--1 bar--|-------------|-------------7-11|-9-----7------------------||---------|-------------|-----------7-----|---------11-9-11----------||---------|-------------|-0---------------|--------------------12----|[39]
F9======= F7======= H9======== F7=================|9--------------------|-0-------------|-12-10-9----10-9-7----|-7----------||--12-10-9--7h9p7-----|-0--12-10------|--9------12--7-----10-|-9---9-7----||-----------------9-8-|-1--------11-9-|--9----------7--------|-9-------9-7||-----------9---------|---------------|----------------------|------------||---9-11-12-----------|---------------|----------------------|-7----------||---------------7-----|-0-------------|--0----------7--------|---------0--|[43]
|-5-4-2---7-------|-------12-14-12-14-12------12-||-2-----5-4-------|-0--------------------9-12----||-----------6-4---|-1----------------------------||---------------7-|------------------------------||-----0-----------|------------------------------||-------------7---|----0-------------------------|[47]
|-11-12-11-12-11-------12-9-11-9-11-9------12-||-------------------10------------------10----||----------------11-------------------9-------||---------------------------------------------||---------------------------------------------||---------------------------------------------|[49]
|-7-9-7-9-7-----12-5-4-2------------||-------------9----------5-4-2-0----||-----------9--------------------2--||-----------------------------------||-----------------------------------||-----------------------------------|[50]
|-5-4-2-----------5-4-2-----------|12-11-9--------------10-9-7-----------||-------5-4-2-----------5-4-2-----|--------12-10-9-------------10-9-7----||-------------4-2-------------4-2-|----------------11-9---------------9-7||---------------------------------|--------------------------------------||---------------------------------|--------------------------------------||---------------------------------|--------------------------------------|[51]
|-9-7------------------------------|----------|-5----5----|-5--------||-----10-9-7-------0---------------|----------|-2----3----|-2--------||------------9-7-6---2-1-----------|----------|-2----2----|-2--------||------------------------4-2-0-----|----------|-2----4----|-2--------||------------------------------4-2-|-0--------|-0----0----|-0--------||----------------------------------|----------|-----------|----------|[53]
|-5----4----|-5--------|-5----3----|-0--------|-5----5--4--|-5----|||-7----3----|-2--------|-2----0----|-2--------|-2----7--3--|-2----|||-7----4----|-2--------|-2----0----|-2--------|-2----7--4--|-2----|||-0----2----|-2--------|-2----2----|-2--------|-2----0--2--|-2----|||------2----|-0--------|-0----2----|-0--------|-0-------2--|-0----|||------0----|----------|------0----|----------|---------0--|------||[57]
(Ricercare)|-5-------------|-----------------|---------------|-------------0-----||----5-6-8--6-5-|---5-6---------2-|-3--1-0----5-3-|-1-------0---------||---------------|-7-----7-6-2-4---|--------2------|-----2-------------||---------------|-----------------|-0-------------|-------------------||---------------|-----------------|----0-2-3--3-2-|-0-2-3-0-----------||---------------|-----------------|---------------|---------4-0-2-4---|[63]
F7====|---------------|---------0-1-3-0-|-10--------8--8-7-||-1------0--2---|-3---------------|-10--10-12--------||-2------0------|-------------2---|-10--------9--9-7-||----2-3----3-2-|-0-2-3-0---------|--0--10--9-7------||-0---------0---|---------4-0-2-4-|-----------0------||----3-1-0----3-|-1-------0-------|------------------|[67]
F8=== H7==== F2=====|----7---8------0-2-4-|-5----3--5--|-5-------5-------|-5----5----|-5--5----||-10-----7-10-9---0---|------0--2--|-6-------2-------|-3---------|----7--9-||--9-----7----9-------|-5----0--2--|-7-----------2-0-|------5----|-5--7----||-10----------9---0---|-2----0--2--|-0---0-2-3-2-----|-3----7----|-7--0--9-||--------0----7-------|-0-------0--|---4-------------|------7----|-7-----7-||--8--------------0---|------------|-----------------|------5----|-5-------|[70]
|-5----5----|-5----5-----|------5----||-----------|-6-------8--|-6----5----||-5----6----|------6--6--|-7---------||-7----7----|-7----7--7--|-7----7----||-7----7----|-5----7--7--|-5---------||-5----5----|------------|------8----|[75]
F7======|-7----7----|--7-----7--------|-0--------|---------||-----------|--------7--------|-0--------|---------||-8----8----|--9--------------|-0--------|--orch---||-----------|--------9--------|-2--------|--1 bar--||-9----9----|-10--------------|----------|---------||-7----7----|--0----11-7-9-11-|----------|---------|[78]
|-5------3--1-0-|---0-1-----------|---------------|-----------------||----5-6-0--2---|-3-----3-2-----2-|-3------1--1---|-0--0-2-3--3-----||-5------0--2---|-----------2-4---|----2-3--------|-----------------||-7------2------|-0---------------|-0-------------|-----------------||-7---------0---|---------0-------|--------0------|-----------------||-5-------------|-----------------|-----------0-2-|-3--3---1--1-3---|[82]
|--------0--0---|-------0-1-5-3-1-|-0---0-1-3-6-5-3-||-2--2-3--------|-3-2-3-----------|---3-------------||---------------|-----------------|-----------------||---------------|-----------------|---2-0-----------||-0--0--------0-|-1-------0---0-2-|-4-----4-2-0-2-4-||--------3--3---|-----------4-----|-----------------|[86]
|-2-0-2-3-5-8-6-5-|-3--------|---------||-----------------|-3--------|---------||-----------------|-3--------|--orch---||---4-2-----------|----------|--1 bar--||-5-----5-3-0-----|----------|---------||-------------3-2-|-3--------|---------|[89]
F8===== F10=====|-8----------------|-3-6-5-3-2---0-2-|-3--------||-8--8-10-11-11-10-|-3---------3-----|-0--------||-8----------------|-3-------2-------|-0--------||---------12-------|---------0-------|-0--------||---------10-------|-----------------|----------||-8----------------|-3---------------|-3--------|[92]
|-5----0----|-1--3--1--0--|-------8----|-5----4----||-5----2----|-3--3--3--2--|-3----10----|------3----||-6----2----|-2--3--2--2--|-2-----9----|-5----4----||-7----2----|-0-----0--2--|-0----------|-7----2----||-7----0----|-0-----0--0--|-------0----|-7----2----||-5----0----|-1--3--1--0--|------------|-0----0----|[95]
|---------5---------------5-------|---------5---------------5---------||-------2---2-----------2---2-----|-------3---3-----------3---3-------||-----2-------2-------2-------2---|-----2-------2-------2-------2-----||---2-----------2---2-----------2-|---3-----------3---3-----------3---||-0---------------0---------------|-0---------------0-----------------||---------------------------------|-----------------------------------|[99]
|---------5---------------5-------||-------2---2-----------2---2-----||-----2-------2-------2-------2---||---2-----------2---2-----------2-||-0---------------0---------------||---------------------------------|[101]
|-------------10----------------------10------------||----------10----10----------------10----10---------||-------11----------11----------11----------11------||----12----------------12----12----------------12---||---------------------------------------------------||-10----------------------10------------------------|[102]
|-------------10----------------------10----------||----------11----11----------------11----11-------||-------12----------12----------12----------12----||----12----------------12----12----------------12-||-------------------------------------------------||-10----------------------10----------------------|[103]
|-------------10----------------------10------------||----------10----10----------------10----10---------||-------11----------11----------11----------11------||----12----------------12----12----------------12---||---------------------------------------------------||-10----------------------10------------------------|[104]
|-------------10----------------------10----------||----------11----11----------------11----11-------||-------12----------12----------12----------12----||----12----------------12----12----------------12-||-------------------------------------------------||-10----------------------10----------------------|[105]
|-------------10----------------------10------------||----------10----10----------------10----10---------||-------11----------11----------11----------11------||----12----------------12----12----------------12---||---------------------------------------------------||-10----------------------10------------------------|[106]
|-------------10----------------------10----------|-10--------|||----------10----10----------------10----10-------|-10--------|||-------11----------11----------11----------11----|-11--------|||----12----------------12----12----------------12-|-----------|||-------------------------------------------------|-----------|||-10----------------------10----------------------|-10--------||[107]
PART 2: Espanoleta y Fanfare de la Caballeria de Napoles (Espanoleta)
|----------|---------|-------------|------------||----------|---------|-------------|------------||--orch----|---------|-------------|------------||--2 bars--|---------|-------------|------------||----------|-------2-|-3-2---5-7-8-|-7--------7-||----------|-----5---|-----5-------|------------|[109]
|-------------|-----------------|----------------||-------------|-----------------|----------------||-------------|-----------------|----------------||-------------|-----------------|----------------||-5-3-2-3-0-7-|-3-0-7-7-5-3-2-0-|-7-------0-2----||-------------|-----------------|----------------|[113]
|-------------|-----------------|---------------|------------||-------------|-----------------|---------------|------------||-------------|-----------------|---------------|------2-4---||-------------|-----------------|---------------|------------||-3-2---5-7-8-|-7---7-5-7-5-----|---------------|------------||-----5-------|---8---------8-7-|-8-5-5-5-4-5-4-|-5----------|[116]
F3================== F2= F5= F4 F5=|-------------|--------------|--------------|-----0-0---------|-0-----5-7-||-------3-5-6-|-5----------5-|-3----0-----5-|---------3-1-0---|-0---------||-5-4-2-4-----|----5-----5---|---5--1-5---4-|-5-----2-------2-|-1---------||-2-----5-----|-5------------|-4----2---7---|---7-------------|-2---------||-0-----------|-3-----3------|-2------7---7-|-7---------------|-2---------||-------------|--------------|--------5---4-|-5---3-1---------|-0---------|[120]
F8======== H8==========================|-8---7-5-10-12-13-|-12-8-12-10-12-10-8----|-8----------------||------------------|--------------------12-|---10-10-10-9-10--||-------------0----|-----------------------|------------------||------------------|-----------------------|------------------||---0--------------|-----------------------|------------------||------------------|----8--------0---------|---0--------0-----|[125]
F5=====================================|-5-------5------------5---|---------5-----------5---||-----------5--------5---8-|-------7---7-------0---6-||-------5----------6-------|-----5-----------0-------||-----7----------7---------|---7-----------0---------||---7----------------------|-5-----------------------||-5------------5-----------|-------------3-----------|[128]
F2==========|---------3-0---------3-0-|---------2-----------1---||-----0-1-----------1-----|-----------4-------0---3-||---0-------------2-------|-----2-4---------1-------||---------------3---------|---4-----------2---------||-3-----------------------|-2-----------------------||-------------1-----------|-------------0-----------|[130]
F5==================================== F3========|---------5-----------5---|---------5-----------5---||-----------5-------5---8-|-----------7-------3---6-||-------6---------6-------|-----5-7---------4-------||-----7---------7---------|---7-----------5---------||---7---------------------|-5-----------------------||-5-----------5-----------|-------------3-----------|[132]
============|---------3-----------0---|-0--------|-------------|--------------||-----------5-------1---3-|-4--------|-------------|--------------||-----4-5---------2-------|-1--------|-------------|--------------||---5-----------3---------|-2--------|-------------|--------------||-3-----------------------|-2----0-2-|-3-2---5-7-8-|-7--------7---||-------------1-----------|-0--------|-----5-------|--------------|[134]
|-------------|-----------------|-----------|---------||-------------|-----------------|-----------|---------||-------------|-----------------|-----------|--orch---||-------------|-----------------|-----------|--1 bar--||-5-3-2-3-0-7-|-3-0-7-7-5-3-2-0-|-7---------|---------||-------------|-----------------|-----------|---------|[138]
|---------|--------------|-------------------|------------------||---------|--------------|-------------------|------------------||---------|--------------|-------------------|------------------||-----2-4-|-5-4-2-7-9-10-|-9----9-7-9-7------|------------------||---------|--------------|---10---------10-9-|-10-7-7-7-6-7-6---||---------|--------------|-------------------|------------------|[142]
H7================== F5================ |---7---------------------|-5-----------5-----------||-----10-8-7-8-7----------|-5-----------7-----------||----------------9-7------|-5-----------7-----------||--------------------10-9-|---9-7-5-----------------||-7-----------------------|---------9-7-5-----------||------------0------------|---------------8-7-5-3-2-|[146]
F3========== H7========= F7=========== |-7-5-3-------12-10-8-7------|--------------7-------------||-------7-5-4--0--------10-8-|-7--------------------------||--------------0-------------|---9-8--------8-------------||----------------------------|-------10-9-7---7-----------||----------------------------|-0------------9---10-9-7----||-3--------------------------|--------------7----------11-|[148]
F7============================ |-0-12-12-10-10-9-7-9-9-7----------------||-0-----------------------10-------------||-0--------------------------------------||--------------------------7-7-----------||-7----------------------------10-10-9-7-||-0--------------------------------------|[150]
===== F5==============|-------------------------15-15-13-13-12------||----------------------------------------15---||-------7-7-5-5------------0------------------||---------------9-7-9-9-7---------------------||-9-9-7-5-------------------------------------||---------------------------------------------|[151]
|-12-0-----------------------------------|-----------|---------||------3-1-0-1---------------------------|-----------|---------||--------------2-1-2---------------------|-----------|--orch---||--------------------3-2-0---------------|-----------|--1 bar--||--------------------------3-2-0---0-----|-----------|---------||--------------------------------4---3-1-|-0---------|---------|[152]
H2=============|---------|-------------|-----------|---------||---------|-------------|-----------|---------||-----2-4-|-5-4-2-2-2-1-|-2---------|--orch---||---------|-3-----4-0---|-----------|--3 bars-||---------|-------------|-0---------|---------||---------|-----------0-|-----------|---------|[155]
F8===========================|----5-4-5-7-|-8-5-0---8-5-10-7-----10-7-|-12-8-8-------------------12-8--||------------|------------------8--------|--------8-----------------------||------------|--------------------0------|----------9---------------------||------------|-------7-------------------|------------10-10---------------||------------|---------------------------|------------------10------------||------------|---------------------------|---------------------12-8-------|[161]
|-10----0-12-0-12-------0-12----12-|-17----12-------0----------------||----12-----------13---------------|----------13------10-------------||--------------------14------------|----14-------14------9-7---------||----------------------------14----|-------------------------10-9----||----------------------------------|------------------------------12-||----------------------------------|---------------------------------|[164]
|-0---------0---0-12-12-12-12-|-8-5-0---8-5-10-7-----10-7-||---------0-------------------|------------------8--------||-------------8---------------|--------------------0------||-----------------------------|-------7-------------------||---7-6-7---------------------|---------------------------||-----------------------------|---------------------------|[166]
|-12-8-8------------------7-|-8---------------------------||--------8--------------9---|---10-10--------12-7-7-------||----------9----7-----7-----|---------9-------------5-----||------------10-----7-------|-----------7-------------0---||-----------------9---------|-----------------------------||---------------------------|-------------10------------0-|[168]
|----------------5-4-5-7-5-7-|-8-7-5-5-0----------10-8-7-7------------||-10-------------------------|-----------------------------8----------||----9-9---------------------|-------------------------------7-7---0--||--------7-7-----------------|-----------10-9-7------------------9----||------------7---------------|------------------0---------------------||--------------5-------------|----------------------------------------|[170]
|-12-10-8-8--------------------------0----12-||--------------------------------------------||-----------12-9-9-7-------0-----------------||--------------------10-10-------------10----||----------------------------7-7-5-----------||----------------------------------8---------|[172]
|-10-------7---0-12-7---8------5-----12-----||----10------9--------9---10-----5------9---||-------11-------------------9-----5------9-||-------------------------------------------||-------------------------------------------||-------------------------------------------|[173]
|-8------5-----12------/12-10-8-8--------------||---10-----5------10--------------12-10-10-8-6-||------9-----5-------9-------------------------||----------------------------------------------||----------------------------------------------||----------------------------------------------|[174]
|-0---------------------12-12-12-12-12-12-12-12-||-----------------------------------------------||----------9-9-9-9-9-9/-------------------------||---2-1-2/--------------------------------------||-----------------------------------------------||-----------------------------------------------|[175]
|-------------0----------10-8-7-7-----------||-13-12-10-10---------------------8---------||-----------------------------------7-7---0-||---------------10-9-7------------------9---||----------------------0--------------------||-------------------------------------------|[176]
F7=======================|-12-10-8-8----0-----------------------7-12-||-------------------------------7-10-9------||-----------12---9-7----7-----7-------------||--------------------10-----7---------------||-------------------------9-----------------||-------------------------------------------|[177]
H10==== F7======|-8------12-------17-------------------||---10------13-------10----------------||------9-------14-------11-7-----------||----------------------------7---------||------------------------------7-------||--------------------------------7-0---|[178]
H14===== H12======== H10========== H8===|-17-------15----12-13-12-|-------10--8------7-5-||----17-18-12-15----12-10-|-12-13-12-10-9-10-9-5-||-17-------12-------13----|-------10--9------7-5-||-14-------12-------12-10-|----------------------||--0--------0--------0--0-|--------0--0--------0-||-------------------------|------------------0---|[179]
|----------|----------|----------------|||----------|----------|-0-1-0----------|||--orch----|------1-2-|-------2-1-2----|||--2 bars--|----------|---0---2---2----|||----------|------2---|-3---------0----|||----------|----------|----------------||[181]
(Fanfare de la Caballeria de Napoles)
|-----------------|-----------------|-----------------|-----------------||-----------------|-----------------|-----------------|-----------------||-----------------|-----------------|-----------------|-----------------||-0-0---0-0---0-0-|-0-0---0-0---0-0-|-0-0---0-0---0-0-|-0-0---0-0---0-0-||-4-4-0-4-4-0-4-4-|-4-4-0-4-4-0-4-4-|-4-4-0-4-4-0-4-4-|-4-4-0-4-4-0-4-4-||-----4-----4-----|-----4-----4-----|-----4-----4-----|-----4-----4-----|[185]
|-----------------|-----------------|-----------------|------------------||-----------------|-----------------|-----------------|------------------||-----------------|-----------------|-----------------|------------------||-0-0---0-0---0-0-|-0-0---0-0---0-0-|-0-0---0-0---0-0-|-0-0---0-0---0-0--||-4-4-0-4-4-0-4-4-|-4-4-0-4-4-0-4-4-|-4-4-0-4-4-0-4-4-|-4-4-0-4-4-0-4-4--||-----4-----4-----|-----4-----4-----|-----4-----4-----|-----4-----4------|[189]
|----5-5-5-|-5------|-----------------|-----------------|----5-5-5-||----4-----|-2------|-----------------|-----------------|----4-----||----5-----|-2------|-----------------|-----------------|----5-----||----4-----|-2------|-0-0---0-0---0-0-|-0-0---0-0---0-0-|----4-----||----------|-0------|-4-4-0-4-4-0-4-4-|-4-4-0-4-4-0-4-4-|----------||----------|--------|-----4-----4-----|-----4-----4-----|----------|[193]
|-5---5-5-5-|-5------|---------|----5-5-5-||-2---4-----|-2------|---------|----4-----||-2---5-----|-2------|--orch---|----5-----||-2---3-----|-2------|--1 bar--|----4-----||-0---------|-0------|---------|----------||-----------|--------|---------|----------|[198]
|-5---5-5-5-|-5---5-5-5-|-5-5-5-5-5-5-2--||-2---4-----|-2---4-----|-4-----4--------||-2---5-----|-2---5-----|-5-----5-----2--||-2---4-----|-2---4-----|-4-----4-----0--||-0---------|-0---------|----------------||-----------|-----------|----------------|[202]
|-2---------------|-----------------|----2-2-2-|-3-5-3-0-0-0-||-3---------------|-----------------|----3-3-3-|-0---0-5-5-5-||-2---------------|-----------------|----2-2-2-|-3---3-0-0-0-||-0-0---0-0---0-0-|-0-0---0-0---0-0-|----0-0-0-|-0---0-4-4-4-||-4-4-0-4-4-0-4-4-|-4-4-0-4-4-0-4-4-|----4-4-4-|-4---4-0-0-0-||-----4-----4-----|-----4-----4-----|----------|-------------|[205]
|-2-2-0-2-3-0--|-2------|---------|----5-5-5-|-5------|------------------||-3-3---3-0-5--|-3------|---------|----4-----|-2------|------------------||-2-2---2-3-0--|-2------|--orch---|----5-----|-2------|------------------||-0-0---0-0-4--|-0------|--1 bar--|----4-----|-2------|-0-0---0-0---0-0--||-4-4---4-4-0--|-4------|---------|----------|-2------|-4-4-0-4-4-0-4-4--||--------------|--------|---------|----------|--------|-----4-----4------|[209]
|-----------------|--2-0-2-3-0--|-2-2-0-2-2---|---------||-----------------|--3---3-0-5--|-3-3---3-3---|---------||-----------------|--2---2-3-0--|-2-2---2-2---|--orch---||-0-0---0-0---0-0-|--0---0-0-4--|-0-0---0-0---|--3bars--||-4-4-0-4-4-0-4-4-|--4---4-4-0--|-4-4---4-4---|---------||-----4-----4-----|-------------|-------------|---------|[215]
|--------------7-9-7-------------|----------|------------------||--------------------------------|----------|------------------||--------4-6-4-------4-6-4-------|--orch----|------------------||--------------------------------|--4 bars--|-0-0---0-0---0-0--||--2-4-2-------------------2-4-2-|----------|-4-4-0-4-4-0-4-4--||--------------------------------|----------|-----4-----4------|[221]
|-----------------|----2-2-2-|-2---2-2-2-|-2-2-2-2-2-2-2-||-----------------|----0-----|-2---0-----|-2-------------||-----------------|----3-----|-3---3-----|-3-------------||-0-0---0-0---0-0-|----0-----|-----0-----|---------------||-4-4-0-4-4-0-4-4-|----------|-4---------|-4-------------||-----4-----4-----|----------|-2---------|-2-------------|[227]
|-----------------|-----------------|---2-2-3-2-|-0----0-3-2--|-0------||-----------------|-----------------|---3-3---3-|-8-10-8-0-3--|-2------||-----------------|-----------------|---2-4---4-|----------2--|-2------||-0-0---0-0---0-0-|-0-0---0-0---0-0-|---0-------|-9----9-0-0--|--------||-4-4-0-4-4-0-4-4-|-4-4-0-4-4-0-4-4-|-----2---2-|-7----7------|-0------||-----4-----4-----|-----4-----4-----|-----------|--------3----|--------|[231]
|---------|----5-5-5-|-5------|----------||---------|----4-----|-2------|----------||--orch---|----5-----|-2------|--orch----||--1 bar--|----4-----|-2------|--6 bars--||---------|----------|-0------|----------||---------|----------|--------|----------|[236]
|-----------------|-----------------|--------------------|||-----------------|-----------------|---------------3--5-|||-----------------|-----------------|--------------------|||-0-0---0-0---0-0-|-0-0---0-0---0-0-|-0------0-----------|||-4-4-0-4-4-0-4-4-|-4-4-0-4-4-0-4-4-|-4------4-----------|||-----4-----4-----|-----4-----4-----|--------------------||[245]
(de Espanoleta) F8========== F5== F9 F5=== F1===|----------------|---------5-|-3------------|-----5-5-3-1-0----||-6-5-3--8-10-11-|-10--------|-3-6-5-6---10-|-6---5-3-------3--||--------9-------|-----------|-4---6---7--9-|---7--------------||-0-----10-------|-10--------|-------7------|-7----------------||----------------|--8--------|-------5------|-5---3-1----------||----------------|------1----|------------9-|------------------|[248]
F4|-5------------------|-------------|-----------------|-----------------||-3-2-3---2----------|-------------|-----------------|-----------------||-2------------------|-------0-2-3-|-2---2-----------|-----------------||--------------0--2--|-3-2-0-------|---3---5-7-5-3-2-|-3-0-0-0---------||-0------------------|-5-----3-----|-3-----4-----0---|-5-------4-5-4---||--------------------|-------------|-1---------------|-----3-5---------|[252]
|--------------------|-----------|----------------------||--------------------|-----------|-----10-8-10--8-10-8--||--------------------|--orch-----|----------------------||--------------------|--11 bars--|----------------------||-4h5p4h5------------|-----------|----------------------||--------------------|-----------|----------------------|[256]
|------------------------------------------||-7-8-7--3-5-3--5-3-5--6-8-6--6-8-6--8-8-6-||------------------------------------------||------------------------------------------||------------------------------------------||------------------------------------------|[269]
|-----------------------------------------||-5-6-5---------------5-6-5--5-6-5--6-6-5-||--------5-7-5--7-5-7---------------------||-----------------------------------------||-----------------------------------------||-----------------------------------------|[270]
|-----------------------------------------||-4-5-4---------------3-5-3--3-5-3--5-5-3-||--------4-5-4--5-4-5---------------------||-----------------------------------------||-----------------------------------------||-----------------------------------------|[271]
|-----------|-----------|---2---4---5---|---5-------------|-0---------||-1--1-1--0-|-1--1-1----|---3-------5---|---5-8-6---------|-0---------||-2--2-2--0-|-0--0-0----|---2-------5---|---6---5---------|-1---------||-2--2-0--0-|-2--2-2--2-|-0-------------|-----9-7---------|-2---------||-0--0------|-3--3-3----|-----3-2-3---7-|---0-7-7-5-------|-----------||------3--3-|-----------|-----------5---|-8---------8-7-5-|----0-0----|[272]
F7==================== H9= |-----------|----12-10-12-10-8-7-|-8----5-5-4-5-4-|-5------|-----------||-1--1-1--0-|-1------7-------9---|---10-7-6---5---|--------|------10---||-2--2-0--0-|-0--------------9---|-9----7-7---4---|-5------|-------9---||-2--2-0--0-|-2------9-----------|-7----0-0-------|--------|------10---||-0--0------|-3--------------7---|----------------|-0------|-------0---||------3--3-|--------------------|------------0---|--------|-----------|[277]
==== H7== |--------------------|--------------|-----------||------8-----6-5-0-1-|-3-1-----0----|-----------||-9-10-7-7-9-4-5-----|-2-2-1-2-1-2--|--orch-----||------9-----6-7-----|-3-2-----0-2--|--6 bars---||------0-----0-0-----|-0-0-------0--|-----------||--------------------|---------0----|-----------|[282]
n.h a.h a.h a.h|-------5---8-|-<12>---[8]---|-[5]------|-[5]-------|||-----1---5---|--------------|----------|-----------|||-------------|--------------|----------|-----------|||---2---------|--------------|----------|-----------|||-0-----------|--------------|----------|-----------|||-------------|--------------|----------|-----------||[290]
PART 3: Danza de las Hachas
|-1--------|-0--------|-1----1----|-5--------||-1--------|-1--------|-3----3----|-2--------||-2--------|-0--------|-2----2----|-2--------||-3--------|-2--------|-0----0----|-2--------||-3--------|-3--------|-----------|-0--------||-1--------|----------|-----------|----------|[294]
|-1--------|-0--------|-1--3--0-----|-----------|----------||-1--------|-1--------|-3--3--3--2--|-3----3----|----------||-2--------|-0--------|-2--4--0-----|-2----2----|--orch----||-3--------|-2--------|-0-----------|-0----0----|--8 bars--||-3--------|-3--------|-------0-----|-----------|----------||-1--------|----------|----3--------|-----------|----------|[298]
H3============================= H3=============|-5--3-5-6-5-3---|-3----3-5-3-----|----0-1--3-|-5---5---|-5--3-5-6-5-3---||--------------6-|-5--6-------6-5-|-3---------|-2---2---|--------------6-||-5--------------|-5--------------|-2----2----|-2---2---|-5--------------||-3--------------|----------------|-3----0----|-2---2---|-3--------------||----------------|-3--------------|-----------|-0---0---|----------------||----------------|----------------|-----------|---------|----------------|[310]
==============|-3----3-5-3-----|-------------|-----------||-5--6-------6-5-|-3--3--3--2--|-3----3----||-5--------------|-2--0--------|-2----2----||----------------|-3-----2-----|-0----0----||-3--------------|----1--0-----|-----------||----------------|-------------|-----------|[315]
|----------|-1--------|-0--------|-1----1----|-5------||----------|-1--------|-1--------|-3----3----|-2------||--orch----|-2--------|-0--------|-2----2----|-2------||--8 bars--|-3--------|-2--------|-0----0----|-2------||----------|-3--------|-3--------|-----------|-0------||----------|-1--------|----------|-----------|--------|[318]
|-1-------|-0-------|-1--3--0-----|----------|----------|-1--0-1-3-1-0---||-1-------|-1-------|-3--3--3--2--|-3----3---|----------|-3------------3-||-2-------|-0-------|-2--3--0-----|-2----2---|--orch----|-2--------------||-3-------|-2-------|-0-----------|-0----0---|--8 bars--|-0--------------||-3-------|-3-------|-------0-----|----------|----------|----------------||-1-------|---------|----3--------|----------|----------|----------------|[330]
H3=============|-0--1-3-5-3-1-0-|------0-1-0-1-3-|-5----5----|-5--3-5-6-5-3---||-2--------------|-3--3-----------|-2----2----|--------------6-||-2--------------|-2--------------|-2----2----|-5--------------||----------------|-3------0-------|-2----2----|-3--------------||-0--------------|----------------|-0----0----|----------------||----------------|----------------|-----------|----------------|[343]
==============|-3----3-5-3-----|-------------|-----------|----------||-5--6-------6-5-|-3--3--3--2--|-3----3----|----------||-5--------------|-2--0--------|-2----2----|--orch----||----------------|-3-----2-----|-0----0----|--8 bars--||-3--------------|----1--0-----|-----------|----------||----------------|-------------|-----------|----------|[347]
|-------------|-------------|-1-----------|-5----5----|------------||-------------|-1-----------|-------3-----|-2----2----|------------||-------------|-0-----------|-2--------0--|-2----2----|------------||-3-----------|-2---0-2--3--|-0--2--3-----|-2----2----|-3----------||-3--------2--|-3-----------|-------------|-0----0----|-3--------2-||-1---3-5-----|-------------|-------------|-----------|-1---3-5----|[358]
|-------------|-------------|-----------|----------||-1-----------|-3--3--3--2--|-3----3----|----------||-0-----------|-2--3--------|-2----2----|--orch----||-2---0-2--3--|-------3-----|-0----0----|--8 bars--||-3-----------|-------0-----|-----------|----------||-------------|-1--3--------|-----------|----------|[363]
H7=============== F10==================|--8--7-8-10-8-7----|--------10-12-10-------||-10-------------10-|-12--13----------13-12-||--9----------------|-----------------------||-------------------|-12--------------------||--0----------------|-10--------------------||-------------------|-----------------------|[374]
F7======================|----------------|-----------|--8--10-12-13-12-10----||-10---9-10--12--|-9----9----|-10-----------------12-||--7-------------|-----------|--9--------------------||----------------|-9----9----|-----------------------||--8-------------|-7----7----|--0--------------------||----------------|-----------|-----------------------|[376]
H7===============|-----8-10-12-10-------|----------------|-------------||-12-------------13-12-|-10--10--10--9--|-10----10----||--0-------------------|----------------|--9-----9----||-12-------------------|-10---0---9-----|--7-----7----||----------------------|--8-------7-----|--0-----0----||----------------------|----------------|-------------|[379]
|----------|-1--------|-0--------|-1----1----||----------|-1--------|-1--------|-3----3----||--orch----|-2--------|-0--------|-2----2----||--8 bars--|-3--------|-2--------|-0----0----||----------|-3--------|-3--------|-----------||----------|-1--------|----------|-----------|[382]
|-5--------|-1--------|-0--------|-1--3--0-----||-2--------|-1--------|-1--------|-3--3--3--2--||-2--------|-2--------|-0--------|-2--4--0-----||-2--------|-3--------|-2--------|-0-----------||-0--------|-3--------|-3--------|-------0-----||----------|-1--------|----------|----3--------|[393]
|-----------|-------------|--------------||-3----3----|-1-----------|-1------------||-2----2----|-2-----------|-0------------||-0----0----|-3-----------|-2------------||-----------|-------0--2--|-3---2--------||-----------|-1---3-------|---------3----|[397]
|-------------|-----------|-------------||-1-----------|-1----1----|-1-----------||-2-----------|-0----0----|-2-----------||-3-----------|-2----2----|-3-----------||-------0--2--|-3----3----|-------0--2--||-1---3-------|-----------|-1---3-------|[400]
|-------------|-------------|-----------||-1-----------|-1-----------|-1----1----||-0-----------|-2-----------|-0----0----||-2-----------|-3-----------|-2----2----||-3---2-0-----|-------0--2--|-3----3----||----------3--|-1---3-------|-----------|[403]
|-1--------|-0--------|-1----1----|-5--------||-1--------|-1--------|-3----3----|-2--------||-2--------|-0--------|-2----2----|-2--------||-3--------|-2--------|-0----0----|-2--------||-3--------|-3--------|-----------|-0--------||-1--------|----------|-----------|----------|[406]
|-1--------|-0--------|-1--3--0-----|-----------|||-1--------|-1--------|-3--3--3--2--|-3----3----|||-2--------|-0--------|-2--3--------|-2----2----|||-3--------|-2--------|-0-----2-----|-0----0----|||-3--------|-3--------|-------0-----|-----------|||-1--------|----------|----3--------|-----------||[410]
PART 4: Canarios Note: Dropped D Tuning = D A D G B E
|-------0-|-2-0-2-3-2-3-|-3p2h3p2--0-----|-------------|----------2-3-2--||-----3---|-3-----0-----|------------3-2-|-0-2-3-5-3-2-|-2h3p2h3---------||---------|-2-----0-----|-2--------------|-0-----0-----|-2---------------||---------|-0-----0-----|-0--------------|-------------|-4---------------||---------|-0-----------|-0--------------|-------0-----|-----------------||---------|-0-----0-----|-0--------------|-5-----------|-0---------------|[414]
|-0-2-0---0---|-------------|-------------|----------------|----------||-------3---3-|-2-3-2-------|-0-2-3-5-3-2-|-2h3p2h3--------|----------||-------1-----|-2-----2-0-2-|-0-----0-----|-2--------------|--orch----||-------------|-2-----------|-------------|-4--------------|--6 bars--||-4-----2-----|-0-----------|-------0-----|----------------|----------||-------------|-------4-----|-5-----------|-0--------------|----------|[419]
|----------|-------------|---------------|--------------|-------------||----------|-------------|---------------|--------5-3-5-|-7-5-7-9-7-9-||--orch----|-------------|---------------|--------------|-------------||--5 bars--|-------------|---------------|--------0-----|-0-----0-----||----------|-5-4-5-7-5-7-|-9-7-9-11-9-11-|-12\--0-------|-------------||----------|-0-----0-----|-0------0------|------------0-|-----0-----0-|[429]
|--------12-10-12-|-14-12-14-16-14-16-||-10\-------------|-------------------||------2----------|-------------------||--0--------------|--0--------0-------||-----------------|-------------------||------0----------|--------0--------0-|[438]
|-17------------|-17------------|-17------------||-------------0-|-------------0-|-------------0-||-----14-16\----|-----14-16\----|-----14-16\----||---------------|---------------|---------------||---------------|---------------|---------------||---------------|---------------|---------------|[440]
|-17---------------|-------|----------|--------|-------------|-----------||----------0-------|-------|----------|--------|-------------|-----------||----14-16---------|-------|--orch----|--------|-------------|-----------||------------11----|-0-----|--3 bars--|--------|-------------|-----------||------------------|-------|----------|----0---|-2---2-4-0-4-|-5-----0---||---------------11-|---0---|----------|------4-|---5---------|----0----4-|[443]
|-------------|-----------|-------------|-------------|----------------||-------------|-----------|-------------|-------------|----------------||-------------|-----------|-------------|-------------|----------------||-------------|-----------|-------------|-------------|-4-0-4-4p2-0----||-------------|-----------|-2---2-4-0-4-|-5-2-5-7-5-7-|-------------4--||-5-2-5-7-7-7-|-4--0--7-4-|---5---------|-------------|----------------|[451]
|------------|-7---7-9----9-|-10----10-12----12-||-------10-7-|---8-----10---|----12-------14----||------------|--------------|-------------------||-0----------|--------------|-------------------||------------|--------------|-------------------||----0-------|--------------|-------------------|[456]
|-14----14-14p12-------|-----------||----15----------15-14-|-15--------||----------------------|-----------||----------------------|-----------||----------------------|-----------||----------------------|-----0-----|[459]
|-7-----------9-------------|-10---------------|-3-----------5-----------||---9-----------10----------|----10------------|---3-----------5---------||-----8------------10-------|-------11---------|-----3-----------5-------||-------0-------------0-----|----------0-------|-------0-----------0-----||---------0-------------0---|------------0-----|---------0-----------0---||-----------0-------------0-|--------------0---|-----------0-----------0-|[461]
|-2-----------|-7-----------9-------------|-10------------12-------------||---3---------|---9-----------10----------|----10------------12----------||-----2-------|-----8------------10-------|-------11------------12-------||-------0-----|-------0-------------0-----|----------0-------------0-----||---------0---|---------0-------------0---|------------0-------------0---||-----------0-|-----------0-------------0-|--------------0-------------0-|[464]
H7===========|-14-12-10-9-------9-7----------|-------|--------|---5-7-|-9-7-9-10-9-10-||------------12-10-----10-8-7---|-------|--------|-------|--------7------||-----------------------------9-|-7-----|--orch--|-------|-9------7------||-------------------------------|----0--|--1 bar-|-------|-7------7------||-------------------------------|-------|--------|-------|-0------0------||-------------------------------|----0--|--------|-------|---------------|[467]
H7=============================== H9================|-10p9h10p9--7------|--------7------|-------------9-10-9-|-7-9-7-5-7-5-||--------------10-9-|-7-9-10---10-9-|--9h10p9h10---------|-7-----5-----||--9----------------|-7------7------|--------------------|-7-----6-----||--7----------------|-0-------------|-11-----------------|-------------||--0----------------|--------7------|--0-----------------|-------------||-------------------|---------------|--------------------|-------------|[472]
|-4-5-4-0---0-|-2-4-5-7------|-4h5p4h5-----|----------||-3-------3---|---------10-9-|-2-----------|----------||-4-----------|-2-----7------|-------------|--orch----||-------------|-0------------|-------------|--7 bars--||-------4-----|--------------|-0-----------|----------||-------------|-------0------|-------------|----------|[476]
H8============= F8===== |-----10-10-|-10-8----10-8----||-----------|------10------10-||-----------|-----------------||-----------|--0--------------||-----------|----------9------||-----------|-----------------|[486]
|-------------------------|----------3-2-3-|-5-6-5------||-11tr12--10--11tr12--10--|-8tr9--7--------|------------||-------------------------|----------------|------------||-------------------------|------------0-1-|-0----------||-10-------9--10-------8--|-6-----6--3-----|------------||-------------------------|----------------|--------0---|[488]
|----------|-----3-3-|-3-1---3-1---|-------------------|-----------------||----------|---------|-----3-0---3-|-4tr6--3--4tr6--3--|-------0--1-0-1--||--orch----|---------|-0-----------|-5-----4--5-----3--|-5tr7-------0-1--||--3 bars--|---------|-------------|-------------------|-6-----6--3------||----------|---------|-------------|-------------------|-----------------||----------|---------|-------------|-------------------|-----------------|[491]
H8==== H8=|-----3-----3-|-----3-----3-|-12---8--10--|-11---------|-----1-----1-||-3-0-----3---|---4---------|--8--10---0--|--8-------6-|---3---------||-0-----------|---------4---|-----10---0--|--------5---|---------2---||-------------|-------------|-10----------|-10---------|-------------||-------2-----|-3-----------|-------------|------0-----|-1-----------||-------------|-------5-----|-------------|------------|-------3-----|[498]
F8==================|-10--6---8--|-10-------------------||-----6--10--|----------------------||-10--7---7--|-10-------------------||--8---------|--8-12-10-8-10-8-7----||------------|-------------------10-||------------|----------------------|[503]
|---10-------------------|----15-13-11-13-11-10----||------13-11-13-11-10----|----------------------13-||---------------------12-|-11----------------------||------------------------|-------------------------||-9----------------------|-------------------------||------------------------|-------------------------|[505]
|---------------------|----------3-----|-------3-----------3-----||-12-8----------------|--------3---3---|-----4---4-------3---3---||------10-8-10-8-7----|------0-------0-|---0-------0---4-------4-||------------------10-|-9--------------|-------------------------||---------------------|----2-----------|-3-----------------------||---------------------|----------------|-------------5-----------|[507]
|-11---8--10--|-12-------1-------|-----1-----------1--------||--8--10---0--|--8-----1---1-----|---3---3-----------1------||-----10---0--|--------------2---|---------3-----2-----2----||-10----------|-10-------------3-|-----------3-----------3--||-------------|------0-----------|-1------------------------||-------------|------------------|-------------3------------|[510]
|-10-------8--|-10-----------------|---13-12-10-12-10-------|--------||-----11--10--|--------------------|------------------13-11-|--------||-10--10--10--|-10-10-9-7-9-7------|------------------------|--------||--8--12------|--8------------10-8-|-7----------------------|-7------||-------------|--------------------|------------------------|--------||-------------|--------------------|------------------------|--------|[513]
|--13-12-10-8----------------|--------------------------||-------------11-10-8--------|--------------------------||---------------------10-9-7-|--------0-----------------||----------------------------|-10-8-7---3-2-------------||----------------------------|--------------5-3-1-0-----||----------------------------|----------------------5-3-|[517]
|-------------------------|--------------7-9-10--12-|-14------|-----------||-------------------------|-------7-8-10------------|---------|-----------||-------------------0-2-4-|-6-7-9-------------------|---------|--orch-----||---------------2-3-------|-------------------------|---------|--10 bars--||-------0-2-4-5-----------|-------------------------|---------|-----------||-2-3-5-------------------|-------------------------|---------|-----------|[519]
|---------|-------------|-----------|-------------|-----------||---------|-------------|-----------|-------------|-----------||---------|-------------|-----------|-------------|-----------||---------|-------------|-----------|-------------|-----------||-----0---|-2---2-4---4-|-5-----0---|-------------|-------0---||-------4-|---5-----7---|----0----4-|-5-2-5-7-7-7-|-4--0----4-|[532]
|-------------|-------------|---------------|---------|----------||-------------|-------------|---------------|---------|----------||-------------|-------------|---------------|---------|--orch----||-------------|-------------|---------------|-0-------|--4 bars--||-2---2-4---4-|-5-2-5-7-4-7-|-9-5-9-9p7-5-4-|---------|----------||---5-----7---|-------------|---------------|----0----|----------|[537]
|----------|----------|-10----10------||----------|-3---3----|----10----10---||----------|---2------|---------------||-0---0----|----------|---------------||---0------|----------|---------------||----------|----------|---------------|[545]
|---------|-10-10-10-10-10-10-|-10--10--10--||---------|--7--7--7--8--8--8-|--7---7---7--||--orch---|--6--6--6--6--6--6-|--6---6---6--||--1 bar--|--0--0--0--0--0--0-|--0---0---0--||---------|--0--0--0--0--0--0-|--0---0---0--||---------|--0--0--0--0--0--0-|--0---0---0--|[548]
|-10-10-10-10-10-10-|-10--10--10--||--7--7--7--8--8--8-|--7---7---7--||--6--6--6--6--6--6-|--6---6---6--||--0--0--0--0--0--0-|--0---0---0--||--0--0--0--0--0--0-|--0---0---0--||--0--0--0--0--0--0-|--0---0---0--|[551]
F10===== F9==== F7=== F5=== F3=== F2===|-10----10---9----9-|-7---7--5---5-|-3---3--5---5-||-12----12--10---10-|-8---8--7---7-|-5---5--2---2-||----11--------9----|---7------6---|---4------2---||-11----11---9----9-|-7---7--5---5-|-4---4--2-----||-------------------|--------------|------------0-||-------------------|--------------|--------------|[553]
|-2---------|--------|-----------|---------|-------------|-------------||-3---------|--------|-----------|---------|-------------|-------------||-2---------|--------|--orch-----|---------|-------------|-------------||-0-0---0---|-0------|--17 bars--|---------|-------------|-------------||-----0---0-|--------|-----------|-----0-0-|-5-2-5-4-0-4-|-4p2---2-0---||-----------|--------|-----------|---------|-------------|-----5-------|[556]
(cadenza)|------17-|-14--------|-----------|-------------|-------5---||---------|-----------|-----------|-------------|---------7-||---------|--------14-|-11--------|-------------|-----------||---------|-----------|-----------|-------------|-----------||---------|-----------|-------0---|-2---2-4-0-4-|-5---------||---------|-----------|---------4-|---5---------|----0------|[578]
|-7-----------9-------------|-10-------------------------|--------------||---8-----------10----------|----10----------------------|--------------||-----8------------10-------|-------11-------------------|--------------||-------0-------------0-----|----------0-------------2-4-|-5-5-5-7-7-7--||---------0-------------0---|------------0---0-2-4-5-----|--------------||-----------0-------------0-|--------------0-------------|--------------|[583]
|-------5---|-7-----------9-------------|-10-------------12--------------||---------7-|---8-----------10----------|----10-------------12-----------||-----------|-----8------------10-------|-------11-------------12--------||-4--0------|-------0-------------0-----|----------0--------------0------||-----------|---------0-------------0---|------------0--------------0----||-----------|-----------0-------------0-|--------------0--------------0--|[586]
|-14-------------16-------------|-17------------||----14-------------15----------|-------------0-||-------14-------------16-------|-----14-16\----||----------0--------------0-----|---------------||------------0--------------0---|---------------||--------------0--------------0-|---------------|[589]
|-17------------|-17-------17-------||-------------0-|-------------------||-----14-16\----|-------------------||---------------|-------------------||---------------|----12-14----12-14-||---------------|-------------------|[591]
|-5-------5---5-------5---|-5-------5---5-------5---|-5-------||-------------------------|-------------------------|-----1---||---2---2---2---2---2---2-|---2---2---2---2---2---2-|-------2-||-------------------------|-------------------------|---------||-----0-----------0-------|-----0-----------0-------|---------||-------------------------|-------------------------|---------|[593]
|-------0-0-0-|-1---------|-------------|-----------|-------0-0-0-||-3-3-3-1-1-1-|----1------|-------1-1-1-|-------1---|-3-3-3-1-1-1-||-3-3-3-0-0-0-|-2--2--2-2-|-3-0-3-0-0-0-|-2-------2-|-3-3-3-0-0-0-||-3-3-3-------|-------2-2-|-0-0-0-2-2-2-|-2--2------|-3-3-3-------||-------------|-----------|-------------|----3------|-------------||-3-3-3-3-3-3-|-3--3--3-3-|-3-3-3-3-3-3-|-3--3------|-3-3-3-3-3-3-|[596]
|-0-0-0-2-2-4-|-5---------|-------0-0-0-|-------0---||-2-2-2-3-3-5-|----5------|-3---3-0-0-0-|-2-------2-||-2-2-2-2-2-4-|-6--6--6-6-|---4---1-1-1-|-1--2------||-------------|-------6-6-|-4-4-4-------|----2------||-0-0-0-0-0-0-|-0--0--0-0-|-0-0-0-0-0-0-|-0--0------||-------------|-----------|-------------|-----------|[601]
|-2-----------4-----------|-5-----------7-----------||---3-----------5---------|---7-----------7---------||-----2-----------4-------|-----6-----------7-------||-------0-----------0-----|-------0-----------0-----||---------0-----------0---|---------0-----------0---||-----------0-----------0-|-----------0-----------0-|[605]
|-9-----------10-------------|-12-0-9-12-0-9-|-12-0-9-------|-0-------||---9------------12----------|---------------|--------------|-3-------||-----9-------------11-------|---------------|--------7-----|-2-------||-------0--------------0-----|---------------|----------4---|-2-------||---------0--------------0---|---------------|--------------|-0-------||-----------0--------------0-|---------------|------------4-|-0-------|[607]
|--17-15-14-12-10-9----------9-|----------------------------||-------------------12-10-12---|-12-10-8-7-8-10-8-7-------7-||------------------------------|--------------------9-7-9---||------------------------------|----------------------------||------------------------------|----------------------------||------------------------------|----------------------------|[611]
|---------------------------|------------12-10-9-7--------||-----------8-7----------12-|-10-8-7---------------10-8-7-||-9-7-6---------9-7---------|--------9-7------------------||-------9-7---------11-9----|-----------------------------||---------------------------|-----------------------------||---------------------------|-----------------------------|[613]
|-------------------------|-------------------------||-------------------------|-------------------------||-9-7-6-----0-------------|-----------------------0-||-------9-7---4-2---------|-----------------0-2-4---||-----------------5-4-2-0-|-----------0-2-4---------||-------------------------|-5-4-2-4-5---------------|[615]
|------------------7-9-10-12-|-10-------|----------|-10-10-10-10-10-10-||-----------7-8-10-----------|----------|----------|--7--7--7--8--8--8-||-2-4-6-7-9------------------|----------|--orch----|--6--6--6--6--6--6-||----------------------------|----------|--3 bars--|--0--0--0--0--0--0-||----------------------------|----------|----------|--0--0--0--0--0--0-||----------------------------|----------|----------|--0--0--0--0--0--0-|[617]
|-10--10--10--|-10-10-10-10-10-10-|-10--10--10--||--7---7---7--|--7--7--7--8--8--8-|--7---7---7--||--6---6---6--|--6--6--6--6--6--6-|--6---6---6--||--0---0---0--|--0--0--0--0--0--0-|--0---0---0--||--0---0---0--|--0--0--0--0--0--0-|--0---0---0--||--0---0---0--|--0--0--0--0--0--0-|--0---0---0--|[623]
|-10----10---9----9-|-7---7--5---5-|-3---3--5---5-||-12----12--10---10-|-8---8--7---7-|-5---5--2---2-||----11--------9----|---7------6---|---4------2---||-11----11---9----9-|-7---7--5---5-|-4---4--2-----||-------------------|--------------|------------0-||-------------------|--------------|--------------|[626]
H9================ F7==== F9=====|----|---------|-14----14--12----12-|-10----10---9-----9-|-7---7---9----9-||-3--|---------|-15----15--14----14-|-12----12--10----10-|-8---8--10---10-||----|--orch---|----14------0-14-0--|----11--------11----|---7-------9----||-0--|--2 bars-|--0-----0------0----|--9-----9---0-----0-|---------0----0-||----|---------|--------------------|---------------0----|-10--9-----0----||----|---------|--------------------|--------------------|----------------|[629]
|-10----------|--------|----------|-10-7-8-7h8p7------|------------------||-------------|--------|----------|--------------10-8-|-7\-3-------------||-11----------|--------|--orch----|-------------------|------5-4h5p4-2-0-||--0--0---0---|-0------|--7 bars--|-------------------|------------------||-------0---0-|--------|----------|-------------------|------------------||-------------|--------|----------|-------------------|------------------|[635]
|---------------------0-0-|-2-2---------------------||-------------------------|-----3-3-----------------||-------------------------|-------------------------||-4-4-0-0-2-2-4-4---------|---------2-2-4-4-0-0-----||-----------------5-5-----|-------------------------||-------------------------|---------------------2-2-|[646]
|--------------------------|-------10----|**||--------------------------|-------10----|**||--------------------------|-------11----|**||--------------------------|--------0----|**||---------------------4-4--|-5------0----|**||-4-4-5-5-4-4-2-2-0-0------|-0------0----|**|[648]
Tap to rate this tab
 
# A B C D E F G H I J K L M N O P Q R S T U V W X Y Z