Joe Bonamassa - Stone Cold Hearted tab

Artist: Joe Bonamassa
Song: Stone Cold Hearted

Original version tabbed by Pieterjan
http://www.ultimate-guitar.com/tabs/j/joe_bonamassa/stone_cold_hearted_power_tab.htm

Gtr I (E A D G B E) - 'Rhytm'
Gtr II (E A D G B E) - 'Lead'
Gtr III (E A D G B E) - 'Rhytm 2'

Gtr III|------------------------|------------------------||------------------------|------------------------||-7-5---------------5----|-7-5---------------5----||-----7-6-5-/3-3-/7---5--|-----7-6-5-/3-3-/7---5--||------------------------|------------------------||------------------------|------------------------|
|
| Gtr II|------------------------|------------------------||------------------------|------------------------||-7-5---------------5----|-7-5---------------5----||-----7-6-5--3-3-/7---5--|-----7-6-5--3-3-/7---5--||------------------------|------------------------||------------------------|------------------------|
|------------------------|------------------------||------------------------|------------------------||-7-5---------------5----|-7-5---------------5----||-----7-6-5-/3-3-/7---5--|-----7-6-5-/3-3-/7---5--||------------------------|------------------------||------------------------|------------------------|
|
| S S S S S E S E e Q S S S S S E S E e Q|------------------------|------------------------||------------------------|------------------------||-7-5---------------5----|-7-5---------------5----||-----7-6-5--3-3-/7---5--|-----7-6-5--3-3-/7---5--||------------------------|------------------------||------------------------|------------------------|
Gtr I|----------x----x-x-x--------x--x-----------x--x----||--6----6--------------6--------------6-------------||--5----5--x----x-x-x--5-----x--x-----5-----x--x----||--4----4--------------4--------------4-------------||--5----5--x----x-x-x--5-----x--x-----5-----x--x----||---------------------------------------------------|
|
| Gtr II|---------------------10----------------10----------||-13b15---13b15----------10-13-------10----13-------||------------------------------12b14----------12b14-||---------------------------------------------------||---------------------------------------------------||---------------------------------------------------|
|------------------x--x--x---x-------x-x---x-x-||--6------------6-----------------6------6-----||--5------------5--x--x--x---x----5--x-x-5-x-x-||--4------------4-----------------4------4-----||--5------------5--x--x--x---x----5--x-x-5-x-x-||----------------------------------------------|
|
| ~~~~~~~~~~~~|-10-------------------------------------------||----------------------------------------------||-----12b13r12-10----12-10-(10)-(10)-----------||-----------------12---------------------------||----------------------------------------------||----------------------------------------------|
|--------------x--x-----x--x--------x--x--------x--x-||--6--------6-----------------6-----------6----------||--5--------5--x--x-----x--x--5-----x--x--5-----x--x-||--4--------4-----------------4-----------4----------||--5--------5--x--x-----x--x--5-----x--x--5-----x--x-||----------------------------------------------------|
|
|-------15----15-16p15----------------15-13-12-------||-18b20----18----------18-15-------------------13----||----------------------------17-14-17-------------12-||----------------------------------------------------||----------------------------------------------------||----------------------------------------------------|
|---------------x--x--x--x--------x--x-----x--x-||--6---------6--------------6-----------6-------||--5---------5--x--x--x--x--5-----x--x--5--x--x-||--4---------4--------------4-----------4-------||--5---------5--x--x--x--x--5-----x--x--5--x--x-||-----------------------------------------------|
|
|-----------------------------------------------||-----------------------------------------------||-10--12----12-10-------------------------------||--------12-------12-10----12----10-------------||-----------------------12----12----10----------||--------------------------------------13-10\---|
Gtr I|------x-x-x-x---x-x---x-x-|------x-x-x-x---x-x---x-x-||-6--6---------6-----6-----|-6--6---------6-----6-----||-5--5-x-x-x-x-5-x-x-5-x-x-|-5--5-x-x-x-x-5-x-x-5-x-x-||-4--4---------4-----4-----|-4--4---------4-----4-----||-5--5-x-x-x-x-5-x-x-5-x-x-|-5--5-x-x-x-x-5-x-x-5-x-x-||--------------------------|--------------------------|
|
| Gtr I|------x-x-x-x---x-x---x-x-|------x-x-x-x---x-x---x-x-||-6--6---------6-----6-----|-6--6---------6-----6-----||-5--5-x-x-x-x-5-x-x-5-x-x-|-5--5-x-x-x-x-5-x-x-5-x-x-||-4--4---------4-----4-----|-4--4---------4-----4-----||-5--5-x-x-x-x-5-x-x-5-x-x-|-5--5-x-x-x-x-5-x-x-5-x-x-||--------------------------|--------------------------|
|------x-x-x-x---x-x---x-x-|------x-x-x-x---x-x---x-x-||-6--6---------6-----6-----|-6--6---------6-----6-----||-5--5-x-x-x-x-5-x-x-5-x-x-|-5--5-x-x-x-x-5-x-x-5-x-x-||-4--4---------4-----4-----|-4--4---------4-----4-----||-5--5-x-x-x-x-5-x-x-5-x-x-|-5--5-x-x-x-x-5-x-x-5-x-x-||--------------------------|--------------------------|
|
|------x-x-x-x---x-x---x-x-|------x-x-x-x---x-x---x-x-||-6--6---------6-----6-----|-6--6---------6-----6-----||-5--5-x-x-x-x-5-x-x-5-x-x-|-5--5-x-x-x-x-5-x-x-5-x-x-||-4--4---------4-----4-----|-4--4---------4-----4-----||-5--5-x-x-x-x-5-x-x-5-x-x-|-5--5-x-x-x-x-5-x-x-5-x-x-||--------------------------|--------------------------|
|------x-x-x-x---x-x---x-x-|------x-x-x-x---x-x---x-x-||-6--6---------6-----6-----|-6--6---------6-----6-----||-5--5-x-x-x-x-5-x-x-5-x-x-|-5--5-x-x-x-x-5-x-x-5-x-x-||-4--4---------4-----4-----|-4--4---------4-----4-----||-5--5-x-x-x-x-5-x-x-5-x-x-|-5--5-x-x-x-x-5-x-x-5-x-x-||--------------------------|--------------------------|
|
|------x-x-x-x---x-x---x-x-|------x-x-x-x---x-x---x-x-||-6--6---------6-----6-----|-6--6---------6-----6-----||-5--5-x-x-x-x-5-x-x-5-x-x-|-5--5-x-x-x-x-5-x-x-5-x-x-||-4--4---------4-----4-----|-4--4---------4-----4-----||-5--5-x-x-x-x-5-x-x-5-x-x-|-5--5-x-x-x-x-5-x-x-5-x-x-||--------------------------|--------------------------|
<|------x-x-x-x---x-x---x-x-|------x-x-x-x---x-x---x-x-||-6--6---------6-----6-----|-6--6---------6-----6-----||-5--5-x-x-x-x-5-x-x-5-x-x-|-5--5-x-x-x-x-5-x-x-5-x-x-||-4--4---------4-----4-----|-4--4---------4-----4-----||-5--5-x-x-x-x-5-x-x-5-x-x-|-5--5-x-x-x-x-5-x-x-5-x-x-||--------------------------|--------------------------|
|
| <|------x-x-x-x---x-x---x-x-|------x-x-x-x---x-x---x-x-||-6--6---------6-----6-----|-6--6---------6-----6-----||-5--5-x-x-x-x-5-x-x-5-x-x-|-5--5-x-x-x-x-5-x-x-5-x-x-||-4--4---------4-----4-----|-4--4---------4-----4-----||-5--5-x-x-x-x-5-x-x-5-x-x-|-5--5-x-x-x-x-5-x-x-5-x-x-||--------------------------|--------------------------|
Gtr III|--------------|--------------||--------------|--------------||--------------|-^3----(3)----||-^5----(5)----|-^3----(3)----||-^5----(5)----|-^1----(1)----||-^3----(3)----|--------------|
|
| Gtr II|--------------|--------------||--------------|-^3----(3)----||-^4----(4)----|-^3----(3)----||-^5----(5)----|-^3----(3)----||-^5----(5)----|-^1----(1)----||-^3----(3)----|--------------|
Gtr I|------------------x-----x--x-----x-----------x--x-----------x--x-||--6------------6--------------------6--------------6-------------||--5------------5--x-----x--x-----x--5--------x--x--5--------x--x-||--4------------4--------------------4--------------4-------------||--5------------5--x-----x--x-----x--5--------x--x--5--------x--x-||-----------------------------------------------------------------|
|
| Gtr II|-10--------10-10-------10----------10----------10----------10----||-----13b15-------13b15----13b15r13----13b15r13----13b15r13----13-||-----------------------------------------------------------------||-----------------------------------------------------------------||-----------------------------------------------------------------||-----------------------------------------------------------------|
|--------------x--x-----x--x--------x-x----x-x-||--6---------6----------------6----------6-----||--5---------5-x--x-----x--x--5-----x-x--5-x-x-||--4---------4----------------4----------4-----||--5---------5-x--x-----x--x--5-----x-x--5-x-x-||----------------------------------------------|
|
| ~~|-15--------15---------15----20b22-20----------||-----18b20------18b20----18-------------------||---------------------------------------19-----||----------------------------------------------||----------------------------------------------||----------------------------------------------|
Gtr III|-------------|--------------||-------------|--------------||-------------|-^3----(3)----||-5----(5)----|-^3----(3)----||-5----(5)----|-^1----(1)----||-3----(3)----|--------------|
|
| Gtr II|-------------|--------------||-------------|-^3----(3)----||-4----(4)----|-^3----(3)----||-5----(5)----|-^3----(3)----||-5----(5)----|-^1----(1)----||-3----(3)----|--------------|
|-------------|-------------------||-------------|-------------------||-2----(2)----|-5-------(5)-------||-2----(2)----|-5-------(5)-------||-0----(0)----|-3-------(3)-------||-------------|-------------------|
|
| <|-------------|-------------------||-------------|-------------------||-2----(2)----|-------------------||-2----(2)----|-5-5-5-5--5--5-5-5-||-0----(0)----|-3-3-3-3--3--3-3-3-||-------------|-------------------|
Gtr I|----------x----x-x-x--------x--x-----------x--x----||--6----6--------------6--------------6-------------||--5----5--x----x-x-x--5-----x--x-----5-----x--x----||--4----4--------------4--------------4-------------||--5----5--x----x-x-x--5-----x--x-----5-----x--x----||---------------------------------------------------|
|
| Gtr II|---------------------10----------------10----------||-13b15---13b15----------10-13-------10----13-------||------------------------------12b14----------12b14-||---------------------------------------------------||---------------------------------------------------||---------------------------------------------------|
|------------------x--x--x---x-------x-x---x-x-||--6------------6-----------------6------6-----||--5------------5--x--x--x---x----5--x-x-5-x-x-||--4------------4-----------------4------4-----||--5------------5--x--x--x---x----5--x-x-5-x-x-||----------------------------------------------|
|
| ~~~~~~~~~~~~|-10-------------------------------------------||----------------------------------------------||-----12b13r12-10----12-10-(10)-(10)-----------||-----------------12---------------------------||----------------------------------------------||----------------------------------------------|
|-----------x-----x--x---x---x-x------x--x-||--6-----6-----------------6-----6---------||--5-----5--x-----x--x---x-5-x-x-5----x--x-||--4-----4-----------------4-----4---------||--5-----5--x-----x--x---x-5-x-x-5----x--x-||------------------------------------------|
|
| ~~~~|-20b22-20-20b22-20------------------19-20-||------------------------------------------||-------------------19---------------------||------------------------------------------||------------------------------------------||------------------------------------------|
|---------------x--x--x--x--------x--x-----x--x-||--6---------6--------------6-----------6-------||--5---------5--x--x--x--x--5-----x--x--5--x--x-||--4---------4--------------4-----------4-------||--5---------5--x--x--x--x--5-----x--x--5--x--x-||-----------------------------------------------|
|
|-17-----17-------------------------------------||-----18----18-15-18-17-------------------------||-----------------------19-17-------------------||-----------------------------19-18-17----------||--------------------------------------20-17\---||-----------------------------------------------|
Gtr I|------x-x-x-x---x-x---x-x-|------x-x-x-x---x-x---x-x-||-6--6---------6-----6-----|-6--6---------6-----6-----||-5--5-x-x-x-x-5-x-x-5-x-x-|-5--5-x-x-x-x-5-x-x-5-x-x-||-4--4---------4-----4-----|-4--4---------4-----4-----||-5--5-x-x-x-x-5-x-x-5-x-x-|-5--5-x-x-x-x-5-x-x-5-x-x-||--------------------------|--------------------------|
|
| Gtr I|------x-x-x-x---x-x---x-x-|------x-x-x-x---x-x---x-x-||-6--6---------6-----6-----|-6--6---------6-----6-----||-5--5-x-x-x-x-5-x-x-5-x-x-|-5--5-x-x-x-x-5-x-x-5-x-x-||-4--4---------4-----4-----|-4--4---------4-----4-----||-5--5-x-x-x-x-5-x-x-5-x-x-|-5--5-x-x-x-x-5-x-x-5-x-x-||--------------------------|--------------------------|
|------x-x-x-x---x-x---x-x-|------x-x-x-x---x-x---x-x-||-6--6---------6-----6-----|-6--6---------6-----6-----||-5--5-x-x-x-x-5-x-x-5-x-x-|-5--5-x-x-x-x-5-x-x-5-x-x-||-4--4---------4-----4-----|-4--4---------4-----4-----||-5--5-x-x-x-x-5-x-x-5-x-x-|-5--5-x-x-x-x-5-x-x-5-x-x-||--------------------------|--------------------------|
|
|------x-x-x-x---x-x---x-x-|------x-x-x-x---x-x---x-x-||-6--6---------6-----6-----|-6--6---------6-----6-----||-5--5-x-x-x-x-5-x-x-5-x-x-|-5--5-x-x-x-x-5-x-x-5-x-x-||-4--4---------4-----4-----|-4--4---------4-----4-----||-5--5-x-x-x-x-5-x-x-5-x-x-|-5--5-x-x-x-x-5-x-x-5-x-x-||--------------------------|--------------------------|
|------x-x-x-x---x-x---x-x-|------x-x-x-x---x-x---x-x-||-6--6---------6-----6-----|-6--6---------6-----6-----||-5--5-x-x-x-x-5-x-x-5-x-x-|-5--5-x-x-x-x-5-x-x-5-x-x-||-4--4---------4-----4-----|-4--4---------4-----4-----||-5--5-x-x-x-x-5-x-x-5-x-x-|-5--5-x-x-x-x-5-x-x-5-x-x-||--------------------------|--------------------------|
|
|------x-x-x-x---x-x---x-x-|------x-x-x-x---x-x---x-x-||-6--6---------6-----6-----|-6--6---------6-----6-----||-5--5-x-x-x-x-5-x-x-5-x-x-|-5--5-x-x-x-x-5-x-x-5-x-x-||-4--4---------4-----4-----|-4--4---------4-----4-----||-5--5-x-x-x-x-5-x-x-5-x-x-|-5--5-x-x-x-x-5-x-x-5-x-x-||--------------------------|--------------------------|
|------x-x-x-x---x-x---x-x-|------x-x-x-x---x-x---x-x-||-6--6---------6-----6-----|-6--6---------6-----6-----||-5--5-x-x-x-x-5-x-x-5-x-x-|-5--5-x-x-x-x-5-x-x-5-x-x-||-4--4---------4-----4-----|-4--4---------4-----4-----||-5--5-x-x-x-x-5-x-x-5-x-x-|-5--5-x-x-x-x-5-x-x-5-x-x-||--------------------------|--------------------------|
|
|------x-x-x-x---x-x---x-x-|------x-x-x-x---x-x---x-x-||-6--6---------6-----6-----|-6--6---------6-----6-----||-5--5-x-x-x-x-5-x-x-5-x-x-|-5--5-x-x-x-x-5-x-x-5-x-x-||-4--4---------4-----4-----|-4--4---------4-----4-----||-5--5-x-x-x-x-5-x-x-5-x-x-|-5--5-x-x-x-x-5-x-x-5-x-x-||--------------------------|--------------------------|
Gtr III|--------------|--------------||--------------|--------------||--------------|-^3----(3)----||-^5----(5)----|-^3----(3)----||-^5----(5)----|-^1----(1)----||-^3----(3)----|--------------|
|
| Gtr II|--------------|--------------||--------------|-^3----(3)----||--4----(4)----|-^3----(3)----||--5----(5)----|-^3----(3)----||--5----(5)----|-^1----(1)----||--3----(3)----|--------------|
Gtr I|----------x-x-x-x-----x-x-----x-x-|----------x-x-x-x-----x-x---x-x--||-6------6---------6-------6-------|-6------6----------6------6------||-5------5-x-x-x-x-5---x-x-5---x-x-|-5------5-x-x-x-x--5--x-x-5-x-x--||-4------4---------4-------4-------|-4------4----------4------4------||-5------5-x-x-x-x-5---x-x-5---x-x-|-5------5-x-x-x-x--5--x-x-5-x-x--||----------------------------------|---------------------------------|
|
| Gtr II| PM-| PM--| PM PM ~~~~~~|------------------------------1---|---------------------------------||----------------------1---3-----3-|-1-------------------------------||----------------0-1-2---2---2-----|----2-1-0------------------------||--------------3-------------------|----------3-0---0-(0)------------||------3-5-3-5---------------------|--------------3------------------||-3--5-----------------------------|---------------------------------|
Tap to rate this tab
 
# A B C D E F G H I J K L M N O P Q R S T U V W X Y Z