John Lee Hooker - Serves Me Right To Suffersyndicater tab

---------------------------------------------------
Serves me right to suffer/syndicater
---------------------------------------------------
Artist:          John Lee Hooker
---------------------------------------------------
tab by: morrison_92
---------------------------------------------------

Intro: played by lead--------------------------------------------------|--------------------------------------------------|--------------------------------------------------|-0h1h2-0h1h2-0h1h2-0h1h2-R3-----------------------|----------------------------2-1-0----------0-1-2--|----------------------------------sb3-0~~~~-------|
Lyrics Start>
Rythm: pm (palm mute all the way)----------------------------------------|----------------------------------------|----------------------------------------|-2-2--4-4--2-2--4-4--2-2--4-4--2-2--4-4-|-0-0--0-0--0-0--0-0--0-0--0-0--0-0--0-0-|----------------------------------------|
----------------------------------------|----------------------------------------|----------------------------------------|-2-2--4-4--2-2--4-4--2-2--4-4--2-2--4-4-|-0-0--0-0--0-0--0-0--0-0--0-0--0-0--0-0-|----------------------------------------|
----------------------------------------|----------------------------------------|-2-2--4-4--2-2--4-4--2-2--4-4--2-2--4-4-|-0-0--0-0--0-0--0-0--0-0--0-0--0-0--0-0-|----------------------------------------|----------------------------------------|
----------------------------------------|----------------------------------------|----------------------------------------|-2-2--4-4--2-2--4-4--2-2--4-4--2-2--4-4-|-0-0--0-0--0-0--0-0--0-0--0-0--0-0--0-0-|----------------------------------------|
----------------------------------------|----------------------------------------|----------------------------------------|----------------------------------------|-2-2--4-4--2-2--4-4--2-2--4-4--2-2--4-4-|-0-0--0-0--0-0--0-0--0-0--0-0--0-0--0-0-|
----------------------------------------|----------------------------------------|-2-2--4-4--2-2--4-4--2-2--4-4--2-2--4-4-|-0-0--0-0--0-0--0-0--0-0--0-0--0-0--0-0-|----------------------------------------|----------------------------------------|
----------------------------------------|----------------------------------------|----------------------------------------|-2-2--4-4--2-2--4-4--2-2--4-4--2-2--4-4-|-0-0--0-0--0-0--0-0--0-0--0-0--0-0--0-0-|----------------------------------------|
-----------------------------------------|-----------------------------------------|-----------------------------------------|-2-2--4-4--2-2--4-4--2-2--4-4--2---2h4-2-|-0-0--0-0--0-0--0-0--0-0--0-0--3h4-0~~-0-|-----------------------------------------|play continuously
The lead guitar solo's in the key of E blues scale (E G A A# B D E)
Here are some fillers that sound coolnumber 1-b3-0------------------------|------b3-0-------------------|-----------b2p0---0h2--------|----------------2-----2------|-----------------------------|-----------------------------|
-b3-b3-b3-----------b3-0~~~~~--|----------5p3---3h5-b3---------|--------------4----------------|-------------------------------|-------------------------------|-------------------------------|They are all played agressive and fast
____ Key: --------------------------------------------------- pm= palm mute. which means you put the side your strumming hand over the strings while you strum (don't place it to high) p= pull off h= hammer on ~= let not ring b= bend sb= slight bend R= repeat how ever many time the number after says ---------------------------------------------------- Notes: I recommend that that the lead is played fast and aggresive allthough you can mix it up. I'm pretty sure that the first part of the intro (0h1h2) is played 12 times but it could be 10 or 8. The leads amp should be set with quite a bit of trebble. Please rate this tab, it is my first ever!!!!! ------------------------------------------
Tap to rate this tab
 
# A B C D E F G H I J K L M N O P Q R S T U V W X Y Z