Romanzo tab with lyrics by John Williams - Easy chords and tabs for guitar

John Williams – Romanzo tab

        ROMANZO - John Williams

|-7-----7-----7-----7-----5-----3-----||---0-----0-----0-----0-----0-----0---||-----0-----0-----0-----0-----0-----0-||-------------------------------------||-------------------------------------||-0-----------------0-----------------|
|-3-----2-----0-----0-----3-----7-----||---0-----0-----0-----0-----0-----0---||-----0-----0-----0-----0-----0-----0-||-------------------------------------||-------------------------------------||-0-----------------0-----------------|
|-12----12----12-----12----10----8------||----0-----0-----0------0-----0-----0---||------0-----0-----0------0-----0-----0-||---------------------------------------||---------------------------------------||-0------------------0------------------|
|-8-----7-----5-----5-----7-----8-----||---5-----5-----5-----5-----5-----5---||-----5-----5-----5-----5-----5-----5-||-------------------------------------||-0-----------------0-----------------||-------------------------------------|
|-7-----8-----7-----11-----8-----7-----||---7-----7-----7------7-----7-----7---||-----8-----8-----8------8-----8-----8-||--------------------------------------||--------------------------------------||-7-----------------7------------------|
|-7-----5-----3-----3-----2-----0-----||---0-----0-----0-----0-----0-----0---||-----0-----0-----0-----0-----0-----0-||-------------------------------------||-------------------------------------||-0-----------------0-----------------|
|-2-----2-----2-----2-----3-----2-----||---0-----0-----0-----0-----0-----0---||-----2-----2-----2-----2-----2-----2-||-------------------1-----------------||-2-----------------------------------||-------------------------------------|
|-0-------------------||---0-----0-----0-----||-----0-----0-----0---||-2-------------------||-------2-------------||--------------3----0-|
|------------7-----7-----7-----7-----5-----3-----||-0-----0------0-----0-----0-----0-----0-----0---||----------------0-----0-----0-----0-----0-----0-||------------------------------------------------||------------------------------------------------||------------0-----------------0-----------------|
|-3-----2-----0-----0-----3-----7-----||---0-----0-----0-----0-----0-----0---||-----0-----0-----0-----0-----0-----0-||-------------------------------------||-------------------------------------||-0-----------------0-----------------|
|-12----12----12-----12----10----8------||----0-----0-----0------0-----0-----0---||------0-----0-----0------0-----0-----0-||---------------------------------------||---------------------------------------||-0------------------0------------------|
|-8-----7-----5-----5-----7-----8-----||---5-----5-----5-----5-----5-----5---||-----5-----5-----5-----5-----5-----5-||-------------------------------------||-0-----------------0-----------------||-------------------------------------|
|-7-----8-----7-----11-----8-----7-----||---7-----7-----7------7-----7-----7---||-----8-----8-----8------8-----8-----8-||--------------------------------------||--------------------------------------||-7-----------------7------------------|
|-7-----5-----3-----3-----2-----0-----||---0-----0-----0-----0-----0-----0---||-----0-----0-----0-----0-----0-----0-||-------------------------------------||-------------------------------------||-0-----------------0-----------------|
|-2-----2-----2-----2-----3-----2-----||---0-----0-----0-----0-----0-----0---||-----2-----2-----2-----2-----2-----2-||-------------------1-----------------||-2-----------------------------------||-------------------------------------|
|-0-------------------||---0-----0-----0-----||-----0-----0-----0---||-2-------------------||-------2-------------||--------------3----0-|
|------------4-----4-----4-----4-----2-----0-----||-0-----0------0-----0-----0-----0-----0-----0---||----------------1-----1-----1-----1-----1-----1-||------------------------------------------------||------------------------------------------------||------------0-----------------0-----------------|
|-0-----------------------------------||-------4-----4-----4-----3-----4-----||---2-----2-----2-----2-----2-----2---||-----4-----4-----4-----4-----4-----4-||-------------------------------------||-2-----------------2-----------------|
|-9-----9-----9-----9-----11----9-----||---7-----7-----7-----7-----7-----7---||-----8-----8-----8-----8-----8-----8-||-------------------------------------||-------------------------------------||-7-----------------7-----------------|
|-9-----7-----7-----7-----9-----11-----||---9-----9-----9-----9-----9------9---||-----9-----9-----9-----9-----9------9-||--------------------------------------||--------------------------------------||-0-----------------0------------------|
|-12-----12-----12-----12-----11-----10-----||----9------9------9------9------9------9---||------9------9------9------9------9------9-||-------------------------------------------||-------------------------------------------||-0--------------------0--------------------|
|-9-----9-----9-----9-----7-----5-----||---5-----5-----5-----5-----5-----5---||-----6-----6-----6-----6-----6-----6-||-------------------------------------||-0-----------------0-----------------||-------------------------------------|
|--------------------------------------||-9-----9-----9-----9-----10-----7-----||---9-----9-----9-----8------8-----8---||-----9-----9-----9-----7------7-----7-||--------------------------------------||-7-----------------7------------------|
|-0--------------------||---0-----0-----0------||-----1-----1-----1----||-2--------------------||-------2--------------||-------------4-----0--|
|------------7-----7-----7-----7-----5-----3-----||-0-----0------0-----0-----0-----0-----0-----0---||----------------0-----0-----0-----0-----0-----0-||------------------------------------------------||------------------------------------------------||------------0-----------------0-----------------|
|-3-----2-----0-----0-----3-----7-----||---0-----0-----0-----0-----0-----0---||-----0-----0-----0-----0-----0-----0-||-------------------------------------||-------------------------------------||-0-----------------0-----------------|
|-12----12----12-----12----10----8------||----0-----0-----0------0-----0-----0---||------0-----0-----0------0-----0-----0-||---------------------------------------||---------------------------------------||-0------------------0------------------|
|-8-----7-----5-----5-----7-----8-----||---5-----5-----5-----5-----5-----5---||-----5-----5-----5-----5-----5-----5-||-------------------------------------||-0-----------------0-----------------||-------------------------------------|
|-7-----8-----7-----11-----8-----7-----||---7-----7-----7------7-----7-----7---||-----8-----8-----8------8-----8-----8-||--------------------------------------||--------------------------------------||-7-----------------7------------------|
|-7-----5-----3-----3-----2-----0-----||---0-----0-----0-----0-----0-----0---||-----0-----0-----0-----0-----0-----0-||-------------------------------------||-------------------------------------||-0-----------------0-----------------|
|-2-----2-----2-----2-----3-----2-----||---0-----0-----0-----0-----0-----0---||-----2-----2-----2-----2-----2-----2-||-------------------1-----------------||-2-----------------------------------||-------------------------------------|
|--0-----------------------||----0------0------0-------||------0------0------0-----||--2-----------------------||---------2----------------||-----------------3-----0--|
Please rate and leave comments!
Please rate this tab:
x1.0