John Williams - Schindlers List tab

Theme from Schindler's List - John Towner Williams (b.1932)
1st version - as recorded by John Williams
2nd version - by Zipidy Doodah, easy version, theme
3rd version - by Christian Ottem, high frets, chord names, theme
******************************************************************************

Theme from Schindler's List - John Towner Williams

as recorded by John Williams

last updated January 2006

standard tuning, tempo ~65-70ish


E||-------------------|--------------------------|-------------------------|B||-------------------|--3-----3-----4--3--------|-----------1--3----------|G||-------------------|--3--0-----0--0-----3-----|--3-----3--2--5--3--2----|D||--0----------------|-----------------------0--|--1-----1-----0-----4----|A||-------------------|--------------------------|-----3-----0--------0----|E||-------------------|--3-----------6-----------|--------1----------------|
--------------1-----------|--------------------------|--3-----3-----4--4--3--1--|-----------1--4--3--1-----|--3--0-----0--3-----------|--------2--------------3--|--------------------------|--3--1--------4--3--1--0--|--------------------------|--0-----0-----------------|--3-----------------------|--------------------------|
--------------------------|------------------------|--------------------------|--1-----1-----3--1-----1--|--3---------------------|--1-----1-----3--1--------|--0-----------0-----3-----|--2----0--0-------0-----|--0-----------0-----3--2--|-----1-----1--0-----4-----|-------------4-------0--|-----1-----1--0-----4-----|--0-----------------------|--1---------------------|--0-----------------------|--------------------------|-------------6----------|--------------------------|
----------------------|--------------------------|--------------3--------|----------------------|--------------3--1--------|-----------3--3--------|--0---------2---------|--3-----3-----0-----3--2--|--0-----3-----3--------|--0---------1----4----|--1-----------0-----4-----|-----0--------0--------|-------3----0---------|-----3-----3--------------|-----------------------|--3-------------------|--------------------------|--3-----------3--------|
-----10-8-11--10--5----6-8-----|-----6-8-5--3-2-5--3-------|---------------------4------4--|-----4------4------3-------|-----7--------7------5------5--|-----5------5------3--7----|-----8--------8----------------|----------------------8----|-------------------------------|---------------------------|--3---------------3------------|--3-------------3----------|
-----10-8-13--11--5----6-8-----|--------------1-3--5-6-9----|----------13---------4------4--|-----1-3-4--4---1------8----|-----7----0----------5------5--|------------0----------6----|-----8----13-------------------|-----1----------------------|-------------------------------|--0--------------------6----|--3---------------3------------|----------------------------|
--3-----3-----4--3--------|-----------1--3--------|--3-----3-----4--3--------|--4--------1--------4-----|--4-----4--3--4--------|--4-----------1-----4-----|--5--5-----------------0--|--5-----------3--------|--5--5-----5-----------0--|--------------------------|--6--3-----3-----------|--------------1-----------|--------------------------|-----------------------|--------------------------|--------------------------|-----------------------|--------------------------|
--------------3-----------|----------------6-----------|--4-----4--6--6--4--------|--8------8------9--9--8--6--|-----------7--0-----7-----|--8-------------8-----------|--6--3--6--0--------9-----|-----10-----10-----------5--|--------------------------|----------------------------|--------------------10----|--8-------------------------|
-----------1--4--3--1-----|--1-----1-----3--1-----1--|--3--------------------|--------3-----0--------4--|--1-----------1-----4-----|--3----1---------1-----|--3--1-----------3--1--0--|-----1-----1--0-----4-----|------------4-------0--|--0-----0-----------------|--0-----------------3-----|--1---------1----------|--------------------------|--------------------------|-----------------------|--------------------------|--------------------------|-----------------------|
--1-----1-----3--1--------|-----------------------|--------------3--1--------|--1-----------1-----4--3--|--1----------3----0----|--4-----4-----1-----4--3--|-----1-----1--0-----4-----|--0----------1---------|--------------0-----4-----|--0-----------------------|-------------0---------|--6--3-----3--------------|--------------------------|--3--------------------|--------------------------|--------------------------|-------13--------------|--------------------------|
-----------3--8---------|-----3-1-4--3---------1-----|--------4-----8---------|---------------3----4-------|--5--0--------8---------|-----0------0-----1------1--|------------------------|-----1------1-----3------3--|--3-----------10--------|--3-------------------------|--------------8---------|----------------------------|
----1----------------------|--3-1-6--4---------1-------|--4---3--1-0-3--1----------|------6-----3----4---------|--1------1------0----0-----|--0------------1------1----|--3------3------1----1-----|--1---6--------3------3----|------------------------3--|---------------------------|---------------------------|---------------------------|
----------------------------|--10-----10-----11--10---------|----------------3--4--7-----|--11--8--11--8--11------11-----|----0-1------5--------------|--12------------------------7--|--3------6-8-3--------10----|-------------------------------|----------------------9-----|-------------------------------|--4------8------------------|-------------------------------|
--6-----6--8--10------------|--10-----10--3--13--11--10--8--|--------4-----13--11--10----|--11--8--10-----11-------------|--8--5--0-----10------11----|--12----------------12--10--8--|-----------7--10------------|--0-------------13-------------|----------------------------|-------------------------------|----------------------10----|-------------------------------|
--1-----5--8--11--10--8--6--|--8-----8-----10--8--6--8--|-----4--------7-------------|--8-----------8------7-----|--0---------------10--8--7--|-----8-----8--7------5-----|--------7-------------------|---------------------------|----------------------------|--0------------------------|--------------6-------------|---------------------------|
--10---------------------|--8-----8-----10--8--6--5--|--10----8----------------|--8-----8-----8------7-----|-------------11--8--7----|-----8-----8--7------5-----|--8-----------------8----|--7--------7--0------0-----|--------------------9----|---------------------------|-------------------------|---------------------------|
--3---------------5----2----|--6-----6-----10--8--6--5--|--3-----------3h4-4----3----|--4-----------8------7-----|--0-------0h3-----5---------|-----5-----5--8------5-----|--0---0h1-------------------|---------------------------|--1-1-------------0---------|--------------0------------|----------------------------|---------------------------|
--3---------------------|--3-------------3--6--10--|--15----------------||--6-----------4----3----|-------------3-----3------|--11----------------||-----8--7--5--0----5----|--3-------3--0--3---------|--12----------------||-------------------4----|----------0---------------|--12----------------||--------0---------------|-------1------------------|--------------------||--3---------------------|--3-----------------------|--------------------||
****************************************************************************** ****************************************************************************** Date: Tue, 14 May 2002 17:12:54 -0400 From: Zipidy Doodah Subject: Theme from Schindler's List by John Williams - simple version [amended by weed@wussu.com - May 02] Theme from Schindler's List by John Williams
1 C1............e|--------------|--------------|--------------|--------------|B|--3-----3-----|--4--3--------|-----------1--|--3-----3-----|G|-----0-----0--|--------3-----|--3-----3-----|-------(2)----|D|--------------|-----------0--|--------------|--------0-----|A|--------------|--------------|-----3--------|--1-----------|E|--------------|--------------|--------1-----|--------------|
5 CI.......... cI.......e|--------------|--1-----------|--------------|--------------|B|--3-----3-----|-----4--3--1--|-----------1--|--4--3--1-----|G|-----0-----0--|--------------|--------2-----|--3--------3--|D|--------------|--------------|--3--1--------|--------0-----|A|--------------|--1-----3-----|--0-----------|--------------|E|--------------|--------------|--------1-----|--------------|
9 cI..........e|--------------|--------------|--------------|--------------|B|--1-----1-----|--3--1-----1--|--3-----------|--------------|G|--------------|-(2)----3-----|--2-----------|--------------|D|-----1-----1--|--0-----4-----|--------------|--------0-----|A|--3-----------|--------------|--------------|--------------|E|--------------|--------------|--------------|--------------|
13 CI...................e|--------------|--------------|--------------|--------------|B|--1-----1-----|--3--1--------|--------------|--------------|G|--------------|--2-----3--2--|--0-----------|--2-----------|D|-----1-----1--|--------0-----|--1-----------|--0-----------|A|--------------|--------------|--------------|--------------|E|--------------|--------------|--------------|--------------|
17e|--------------|--------------|--------------|-------------||B|-----1-----1--|--3--1--------|--------------|-------------||G|--3-----3-----|-(2)----3--2--|--0--------0--|--0----------||D|--------------|--0-----4-----|--------0-----|--0----------||A|--3-----------|--------------|-----3--------|-------------||E|--------------|--------------|--3-----------|--3----------||
****************************************************************************** ****************************************************************************** Theme from Schindler's List - John Towner Williams Transcribed by Christian Ottem (christian_ottem@hotmail.com) This is one of my favorites indeed, it's the theme from Spielberg's masterpiece, "Shindler's List", which I've arranged for guitar. Have fun! NB: I've now started a mailing-list of classical tabs. If you sign up, you'll get one free transcription every week, just gimme a mail for signing up or requests! http://www.geocities.com/classicalsweeps
J=52 A5 Dm|-------------------|-------|-5-----------------------||-------------------|-------|-6-----------------------||-------------------|-------|-7-------------7---------||-2-----------------|-7-----|-------------------------||-0-----------------|-------|-------------------------||-------------------|-------|-------------------------|6 7 8
A# F5---------6----5--------------|-----------------3----5-------|----------|--------------------6---------|-6----------6----5----6-------|----------|-----7------------------------|-7-----0---------0----5-------|----------|-------------------------7----|-8--------------------------3-|----------|------------------------------|------------------------------|----------|------------------------------|------------------------------|----------| 9 10
Dm5------------5---------8-------6----5---------|---------------0---------|6----------------------------------------8----|--1----------------------|7-------7---------7----7----------------------|--3-------3--------------|-----------------------5----------------------|-------------------------|----------------------------------------------|--3----------------------|----------------------------------------------|-------------------------| 11
F11 Gm D53----6-------5-----3---------|--3------------3---------5-----3----------|------------------------6----|--3----------------------3----------------|-----5-----------------------|--3-------3---------3----2----------------|-----3-------7---------------|------------------------------------------|-----------------------------|------------------------------------------|-----------------------------|--3------------3---------0----------------| 12
FM7 Gm1-----3----|--5----------------------------0-----1-----|--3-------------|2----------|--6------------------3---------------------|--3-------------|-----------|--9-----------------------2----------2-----|--3-------3-----|-----------|---------------------3---------------------|----------------|-----------|----------------0--------------------------|----------------|-----------|-------------------------------------------|----------------| 13 14
E7sus4 A+ Gm73----------5-----------------------|----------0-------------|--1--------|-----------5-------8----6-----5----|--3-------3-------2-----|--3--------|3-----3----7------------6----------|--3-------2-------------|--3--------|-----------------------------------|------------------------|-----------|-----------7------------0----------|--1-------0-------------|-----------|-----------------------------------|------------------------|--3--------| 15 16
-----1---------5-------3----1-----0----|--1----------0-------5-----|----|-----3---------5------------2----------|--3----------3-------------|----|0----3----0----7-----------------------|---------------------6-----|----|---------------------------------------|--0------------------------|----|---------------0-----------------------|---------------------------|----|-----3---------------------------------|---------------------------|----| 17 18
A#517----------17--------18---17--------------|--------------------15------|-------15--------15--------------18--------|--18-----------18-----------|-------------------------------------------|--15------------------------|15--------------------20---19---------19---|----------17----------------|-------------------------------------------|--------------------15------|-------------------------------------------|----------------------------| 19
D5/D17------------|--17-----------17----------------18---17---15---|--------|--------------|--15------15--------15---15---------------------|--------|--------------|------------------------------------------------|--------|19------------|--0---------------------------------------------|--------|15------15----|------------------------------------------------|--------|--------------|---------------------------------18-------------|--------| 20 21
-------------12---15---18------17---15---13---|--15-----------15--------|13--------------------------------------------|-------------------------|15------15-------------17---------------------|--15------15-------------|-----------------------15---------------------|--17---------------------|15--------------------------------------------|-------------------------|----------------------------------------------|--0----------------------| 22
*15---17------15---13----15---|--17---------|--3------------|15----------------14---------|--15---------|--3------------|-----17----------------------|--14---------|--3----3-------|17---19----------------------|-------------|-------5-------|-----0-----------------------|-------0-----|---------------|0----------------------------|-------------|--3------------|
.-. E7sus4 A+ *3----------5-----------------------|----------0-------------|--5-|-----------5-------8----6-----5----|--3-------3-------2-----|--6-|3-----3----7------------6----------|--3-------2-------------|--7-| hold notes------5----------------------------|------------------------|--7-|-----------7------------0----------|--1-------0-------------|--5-|3----------------------------------|------------------------|--5-|
****************************************************************************** ******************************************************************************
Tap to rate this tab
 
# A B C D E F G H I J K L M N O P Q R S T U V W X Y Z