Jose Luis Merlin - Evocacion Suite Del Recuerdo tab

http://personal.redestb.es/merlinguitar/

Jose Luis Merlin
Suite Del Recuerdo: Evocacion                                  

play at moderate tempo..

E||--------0--3--7------8--|--5-----------------0-----|B||-----0------------------|-----------5-----1--------|G||------------------------|--------5-----0--------0--|D||------------------------|-----7--------------------|A||------------------------|--0-----------------------|E||--0---------------------|--------------------------|
-----------2--5--------7--|--3-----------------------|-----0--4-----------4-----|-----------0--------0-----|--------------------------|--------0--------0--------|--4--------------4--------|-----2--------1--------1--|--------------2-----------|--------------------------|--------------------------|--0-----------------------|
--------0--2--3--------5--|--2--------0--5--3--2--0--|-----0--------------0-----|--------1-----------------|-----------------0--------|-----2--------------------|--0-----------------------|--------------------------|--------------4-----------|--3-----------------------|--------------------------|--------------------------|
-----------0--2--------3--|--0-----------------------|--------0--3--7------8--|-----0--4-----------0-----|--------------0-----------|-----0------------------|-----------------2--------|-----------0-----0--------|------------------------|--------------1-----------|--------2-----------2-----|------------------------|--2-----------------------|-----2-----------------2--|------------------------|--------------------------|--0-----------------------|--0---------------------|
--5-----------------0-----|-----------2--5--------7--|-----------5-----1--------|-----0--4-----------4-----|--------5-----0--------0--|--------------------------|-----7--------------------|--4--------------4--------|--0-----------------------|--------------2-----------|--------------------------|--------------------------|
--3-----------------------|--------0--2--3--------5--|-----------0--------0-----|-----0--------------0-----|--------0--------0--------|-----------------0--------|-----2--------1--------1--|--0-----------------------|--------------------------|--------------4-----------|--0-----------------------|--------------------------|
--2--------0--5--3--2--0--|-----------0--2--------3--|--------1-----------------|-----0--4-----------0-----|-----2--------------------|-----------------2--------|--------------------------|--------------1-----------|--3-----------------------|--2-----------------------|--------------------------|--------------------------|
--0-----------------------|-----0--4--7--10-----4--12--|--------------0-----------|------------------0---------|-----------0-----0--------|----------------------------|--------2-----------2--1--|--0-------------------------|-----2--------------------|----------------------------|--0-----------------------|---------------0------------|
--8------0--5-----0---8-----|-----------5--8-----5--10--|---------------------10-----|--------7------------------|-------------------------0--|-----7-----------7---------|-----10--------5------------|---------------------------|--0-------------------------|--9------------------------|----------------------------|---------------------------|
--7--------3--------7-----|-----------3--7--------8--|-----0--3-----------8-----|--------5-----------5-----|--0--------------4--7-----|-----5-----------5--------|--------------4-----------|--------------------------|-----------------------9--|--7-----------------------|--------------------------|--------------------------|
---------------5-----------|-----------2--3--------2--|--10--------6-----6--------|-----0--4-----------4-----|---------5-----------------|-----------------2--------|------7--------------3--2--|--1-----------------------|---8-----------------------|--------------2-----------|---------------------------|--------------------------|
--0-----------------------|-----0--4--7--10-----4--12--|--------------0-----------|------------------0---------|-----------0-----0--------|----------------------------|--------2-----------2--1--|--0-------------------------|-----2--------------------|----------------------------|--0-----------------------|---------------0------------|
--8------0--5-----0---8-----|-----------5--8-----5--10--|---------------------10-----|--------7------------------|-------------------------0--|-----7-----------7---------|-----10--------5------------|---------------------------|--0-------------------------|--9------------------------|----------------------------|---------------------------|
--7--------3--------7-----|-----------3--7--------8--|-----0--3-----------8-----|--------5-----------5-----|--0--------------4--7-----|-----5-----------5--------|--------------4-----------|--------------------------|-----------------------9--|--7-----------------------|--------------------------|--------------------------|
---------------5-----------|-----------2--3--------2--|--10--------6-----6--------|-----0--4-----------4-----|---------5-----------------|-----------------2--------|------7--------------3--2--|--1-----------------------|---8-----------------------|--------------2-----------|---------------------------|--------------------------|
^ strum--0-----------------------|------------0----------|--------------0-----------|------------0----------|-----------0-----0--------|------------0----------|--------2-----------2-----|------------2----------|-----2-----------------2--|------------2----------|--0-----------------------|------------0----------|
kid©2007™
Tap to rate this tab
 
# A B C D E F G H I J K L M N O P Q R S T U V W X Y Z