Judas Priest - The Sentinel tab version 2

Judas Priest 
The Sentinel
album :defenders of the faith
                                
Gtr I (E A D G B E) - 'Distortion'
Gtr II (E A D G B E) - 'Distortion'
Gtr III (E A D G B E) - 'Distortion'
Gtr IV (E A D G B E) - 'Distorted Tremolo'

Intro Q=140 4/4 Gtrs I, II||-----------|------------------------|------|||o----------|------------------------|------|||-----------|------------------------|------|||--9--------|-(9)\-----4-5-4h5p4-----|-5----|||o-7--------|-(7)\---7-----------7-5-|-3----|||--0--------|------7-----------------|------|
1. ~|--------------|----------|------------------|------||--------------|----------|------------------|------||--------------|----------|------------------|------||-(5)----5-5---|-2--------|-(2)--------------|------||-(3)----3-2---|-0--------|-(0)-------0------|-2----||--------------|----------|-----0-2-3---3-2--|-0----|
2.|--------------||----------|--------|||-------------o||----------|--------|||--------------||----------|--------|||--------7-----||----------|--------|||-(2)----5----o||-2--------|-(2)----|||-(0)----------||-0--------|-(0)----||
Q=170 11/8 4/4 Gtr I|-----------------|-----------------------|------------------||-------------5---|-----3-----1-----------|-------------5----||-----2-----2---5-|---2-----2-------0-----|-----2-----2---5--||---2-----3-------|-0-----3-------2-------|---2-----3--------||-0-----0---------|-------------3-----2-3-|-0-----0----------||-----------------|-----------------------|------------------|
D5 F5 C5 B5C5 11/8 4/4 Gtr II | | | | | / / / / /
Gtrs I, II|-----------------------|--------------|------------------||-----3-----1-----------|--------------|------------------||---2-----2-------0-----|--------------|--5-5---5--(5)-5--||-0-----3-------2-------|-2------(2)-2-|--5-5-2-5--(5)-5--||-------------3-----2-3-|-0------(0)-0-|------0-----------||-----------------------|--------------|------------------|
Verse PM------------------------------------------------||----------------||-------------------|-----------------|-----------------||----------------||-------------------|-----------------|-----------------||--5-5---5-------||-------------------|-----------------|-----------------||--5-5-2-5-2-2-2-||-(2)-2-2-2-2-2-2-2-|-2-2-2-2-2-2-2-2-|-2-2-2-2-2-2-2-2-||------0---0---0-||-(0)-0-0-0-0-0-0-0-|-0-0-0-0-0-0-0-0-|-0-0-0-0-0-0-0-0-||----------------||-------------------|-----------------|-----------------|
PM------------------------------------------------||----------------|-----------------|-----------------|-----------------||----------------|-----------------|-----------------|-----------------||--5-5---5-------|-----------------|-----------------|-----------------||--5-5-2-5-2---2-|-2-2-2-2-2-2-2-2-|-2-2-2-2-2-2-2-2-|-2-2-2-2-2-2-2-2-||------0---0---0-|-0-0-0-0-0-0-0-0-|-0-0-0-0-0-0-0-0-|-0-0-0-0-0-0-0-0-||------------3---|-----------------|-----------------|-----------------|
Pre-Chorus PM PM--------||-----------------||--------------|------------|------------------||-----------------||o-------------|------------|------------------||---5-5---5-----0-||--(0)----5----|-2----0---2-|-(2)--------------||-2-5-5-2-5-2---2-||--(2)----2----|-3----0---2-|-(2)--2-2-2-2-2-2-||-0-----0---0-0---||o-------------|----------0-|-(0)--0-0-0-0-0-0-||-----------------||--------------|------------|------------------|
PM|-----------------|-------------|------------|----------------|----------------||-----------------|-------------|------------|----------------|----------------||---5-5---5-----0-|-(0)----5----|-5----7---4-|-(4)------(4)-4-|----5---4---5---||-2-5-5-2-5-2---2-|-(2)----2----|-3----5---7-|-(7)------(7)-6-|--2---2---2---2-||-0-----0---0-0---|-------------|------------|----------------|--------------0-||-----------------|-------------|------------|----------------|----------------|
Chorus A5 G5A5 F5 Gtr II | | | | | | | | / / / / / / / /
Gtr I PM--------| PM--------|||------------------|-----------------|------------------|-----------------|||------------------|-----------------|------------------|-----------------|||------------------|-----5---4---5---|------------------|----5---4---5----|||-(2)--2-2-2-2-2-2-|-2-2---2---2---2-|-(2)--2-2-2-2-2-2-|--2---2---2---2--|||-(0)--0-0-0-0-0-0-|-0-------------0-|-(0)--0-0-0-0-0-0-|--------------3--|||------------------|-----------------|------------------|-----------------|
1. D5 | | | / / /
Gtrs I, II|----------------|-----------------|------------|-----------------||----------------|-----------------|------------|-----------------||-2--2-2-2-2-2-2-|-2---5---4-0-5-7-|-7------5-4-|-0-5-5---5-------||-3--3-3-3-3-3-3-|---3---3---------|------------|---5-5---5-2---2-||----------------|-----------------|------------|-------0-----0-0-||----------------|-----------------|------------|-----------------|
PM----------------------------------------------------||------------------|-----------------|-----------------|-----------------||------------------|-----------------|-----------------|-----------------||------------------|-----------------|-----------------|---5-5---5-------||-(2)--2-2-2-2-2-2-|-2-2-2-2-2-2-2-2-|-2-2-2-2-2-2-2-2-|-2-5-5-2-5-2---2-||-(0)--0-0-0-0-0-0-|-0-0-0-0-0-0-0-0-|-0-0-0-0-0-0-0-0-|-0-----0---0-0-0-||------------------|-----------------|-----------------|-----------------|
PM------------------------------------------------||------------------|-----------------|-----------------|-------------||------------------|-----------------|-----------------|-------------||------------------|-----------------|-----------------|-------------||-(2)--2-2-2-2-2-2-|-2-2-2-2-2-2-2-2-|-2-2-2-2-2-2-2---|-----5-------||-(0)--0-0-0-0-0-0-|-0-0-0-0-0-0-0-0-|-0-0-0-0-0-0-0-5-|--7--3--5--7-||------------------|-----------------|---------------3-|--5-----3--5-|
2. D5 E5 Gtr II | | | / / /
Gtr I ~|-----------------||---------------||----------------o||-----------5b7-||--5-5---5-----2--||-7-------7-7b9-||--5-5-2-5-2---0--||---------------||------0-----0---o||---------------||-----------------||---------------|
G5 G#5 A5 | | | | | | / / / / / /
|------------------------|--------------|------------------|||-(5)b7---8b10----9b11---|-10b12--------|-(10)----(10)\----|||-(7)b9--10b12---11b13---|-12b14--------|------------------|||------------------------|--------------|------------------|||------------------------|--------------|------------------|||------------------------|--------------|------------------||
Bridge Gtrs I, II||------------|--------------------|----------|---------------|||o-----------|--------------------|----------|---------------|||------------|--------------------|----------|---------------|||--9------9--|------4-5-4-5-4-----|-5--------|-(5)------4----|||o-7------7--|----7-----------7-5-|-3--------|-(3)----0-2----|||------------|--7-----------------|----------|---------------|
1.|----------|------------------|------||----------|------------------|------||----------|------------------|------||-2--------|-(2)--------------|------||-0--------|-(0)-------0------|-2----||----------|-----0-2-3---3-2--|-0----|
2.|----------------||----------|-------------|||---------------o||----------|-------------|||----------------||----------|-------------|||-------7--(7)\--||----------|-------------|||-7-----5--(5)\-o||-2--------|-(2)---------|||-0--------------||-0--------|-(0)------3--||
11/8|-----------------|-----------------------||-------------5---|-----3-----1-----------||-----2-----2---5-|---2-----2-------0-----||---2-----3-------|-0-----3-------2-------||-0-----0---------|-------------3-----2-3-||-----------------|-----------------------|
4/4 11/8|-----------------|-------------------------||-------------5---|-----3-----1-------------||-----2-----2---5-|---2-----2-------0-------||---2-----3-------|-0-----3-------2---------||-0-----0---------|-------------3-----2-3---||-----------------|-------------------------|
4/4||----------------|----------------|----------------|----------------||||o---------------|----------------|----------------|---------------o||||----------0h2---|---------0-1-2--|-0-1h2---0-2-2--|-(2)-5---5--4---||||--2-2-2-2-0h2---|-2-2-2-2--------|-2-2-2-2-0-2-0--|-(0)-2---3--2---||||o-0-0-0-0-------|-0-0-0-0--------|-0-0-0-0--------|---------------o||||----------------|----------------|----------------|----------------||
Guitar Solo A5 Gtr II | | | | | | | | / / / / / / / /
Gtr I|-12p5h8p5-12p5h7p5-12p5h8p5-13p8p7p5-||-------------------------------------||-------------------------------------||-------------------------------------||-------------------------------------||-------------------------------------|
A5 D5open | | | | | | | | | | | | | | | / o / / / / / / / / / / / / /
|-12p5h8p5-12p5h7p5-12p5h8p5-13p8p7p5-|-12p5h8---------------------||-------------------------------------|-------------10p5h6---------||-------------------------------------|---------9p5--------9p5h7p5-||-------------------------------------|----------------------------||-------------------------------------|----------------------------||-------------------------------------|----------------------------|
C/E F5IE5IIA5 | | | | ||| | | | | | / / / / /// / / / / /
~~~~ ~|---------------------|------------------------||---------------------|-----5-5-5b6------------||-7b9r=(7)-(7)-5------|---5---------5b5.5--(5)-||----------------7----|------------------------||---------------------|------------------------||---------------------|------------------------|
A5 D5open | | | | | | || | | | | | | | / o / / / / // / / / / / / /
|-----------------------|-5h7p=5h8--------------------||-----------------------|----------6p=5---------------||---5-5-5b7--5-7-5b9--5-|---------------7p5p=4--------||-7---------------------|----------------------7p5p4--||-----------------------|-----------------------------||-----------------------|-----------------------------|
C/E F5IE5IIA5 | | | | | | | | | | | | / / / / / / / / / / / /
~|--------------|-17h20p17----17h20-17-17-17--17h20p17----------17h20p17----||--------------|----------20--------------------------17h20p17----------17-||--------------|-----------------------------------------------------------||--------------|-----------------------------------------------------------||-7-5---3------|-----------------------------------------------------------||-----7---5----|-----------------------------------------------------------|
A5 | | | | | | | | / o / / / / / /
~~|-----17h20p17-------20p17-----------------------||-18-----------18-17-------17-20b22-20--(20)\----||------------------------------------------------||------------------------------------------------||------------------------------------------------||------------------------------------------------|
D5open C/E F5III E5IIA5 | | | | | | | | | | | / / / / / / / / / / /
PM---------| ~~~~~|---------------------------------|-----------------8-10b12----||---------------------------------|----------8-9h10------------||-------------------------------9-|-7h8h9-10-------------------||-------------------------5-6-7---|----------------------------||--------------[5]-6--[7]---------|----------------------------||-5-3h5-3-4--5--------------------|----------------------------|
| || | | | | | | | | | || | | / // / / / / / / / / / // / /
~~~|-----------------|-------------------------||-----------------|----------------------0--||-----------------|-------[5]---------------||-7\---------[7]--|-[5]-7-----[7]---(7)\----||-----------------|-------------------------||-----5-3-5-------|-------------------------|
D5open C/E F5III E5II | | | | | | | | | | | / / / / / / / / / / /
~~~|----------------------------------|-----------------------------||-10p8h10p8h10p8h10p8h10p8h10p8p0--|--------------------------13-||----------------------------------|-5-x-----7b9-(7)-14----14----||----------------------------------|-----x-7------------15-------||----------------------------------|-----------------------------||----------------------------------|-----------------------------|
F5 D5/F# | | / /
|-20p17h20-17--------------------------------10-||----------18-----------------------------10----||-------------17-14h17----17p14h17-14\-11-------||----------------------15-----------------------||-----------------------------------------------||-----------------------------------------------|
D5/F# G5 | | / /
|-14-10----------10-14p10--------7-||-------10----10----------10---8---||----------11----------------7-----||----------------------------------||----------------------------------||----------------------------------|
E5/G# | | | | | / / / / /
|-10-7-------7-8p7-------4-|-8p4-------4-7p4---7\--||------8---8-------8---5---|-----5---5-------5-----||--------7-----------4-----|-------4---------------||--------------------------|-----------------------||--------------------------|-----------------------||--------------------------|-----------------------|
A5 A5 | | | | | | || | | | | | ||| / / / / / / // / o / / / ///
~~~ ~~~~~~|---------------------------|----------------||---------------------------|----------------||---------------------------|----------------||---------------------------|----------------||---------------------------|---3-5-7-(7)----||-7b8r(7)b9r(7)b8r(7)-0-3---|-5--------------|
D5open C/E F5IIIE5II | | | | | | | | | | | / / / / / / / / / / /
~~~~~~|--------------------|-------------------||--------------------|-------------------||--------------------|-5h7p5-4-5-(5)-----||-----5-7--5-4h5-5h7-|-------------------||-5-7----------------|-------------------||--------------------|-------------------|
F5 D5/F# Gtr III | | / /
Gtr I|----------------------|-5h7p5-7h8p7-8h10p8-10h12p10-||-----------5h6p5-6-8--|-----------------------------||-4h5-5h7p5------------|-----------------------------||----------------------|-----------------------------||----------------------|-----------------------------||----------------------|-----------------------------|
|
| Gtr II|----------------------|-----------------------------||----------------------|-5h6p5-6h8p6-8h10p8-10h12p10-||-----------4h5p4-5h7--|-----------------------------||-5h7-7h9p7------------|-----------------------------||----------------------|-----------------------------||----------------------|-----------------------------|
G5 E5/G# | | | / / /
|-12h13p12-13h15p13-15h17p15-17h19p17-|-20b22--20-19-17-------||-------------------------------------|------------------20---||-------------------------------------|-----------------------||-------------------------------------|-----------------------||-------------------------------------|-----------------------||-------------------------------------|-----------------------|
|
|-------------------------------------|-----------------------||-12h13p12-13h15p13-15h17p15-17h18p17-|-20b22--20-18-17-------||-------------------------------------|------------------19---||-------------------------------------|-----------------------||-------------------------------------|-----------------------||-------------------------------------|-----------------------|
A5 E5G5 | | | | | | / / / / / /
Gtr I Gtrs I, II|-----------------|-------------------|--------------------|----------|--------||--10-----6-----5-|-----3-------------|-0-------0----------|----------|--------||-----9-----5-----|-5-----4---5-2---0-|---2---0---2--------|----------|--------||-------7-----5---|---5-----5-----2---|-----2-------2------|-2--------|-(2)----||-----------------|-------------------|---------------3-2--|-0--------|-(0)----||-----------------|-------------------|--------------------|----------|--------|
Interlude Gtr IV|------------|------------|----------------|-----------------|-----------------||------------|------------|----------------|-----------------|-----------------||------------|------------|--------0-0-1-2-|-0-0-0-2-5-5-0-0-|-2-2-2-2-5-5-0-0-||-(2)--------|-(2)--------|-(2)----0-0-1-2-|-0-0-0-2-5-5-0-0-|-3-3-3-3-3-3-0-0-||-(0)--------|-(0)--------|-(0)------------|-----------------|-----------------||------------|------------|----------------|-----------------|-----------------|
||------------------|-----------------|-----------------|||o-----------------|-----------------|-----------------|||--2-2-2-5-5-5-2-2-|-2-2-2-5-5-5-0-0-|-2-2-2-5-5-5-0-0-|||--0-0-0-0-0-0-3-3-|-2-2-2-5-5-5-0-0-|-2-2-2-5-5-5-0-0-|||o-----------------|-----------------|-----------------|||------------------|-----------------|-----------------|
6x|-----------------|--------------------|||-----------------|-------------------o|||-2-2-2-5-5-5-0-0-|-2-2-2-5-5-5-2-2----|||-3-3-3-3-3-3-0-0-|-0-0-0-0-0-0-3-3----|||-----------------|-------------------o|||-----------------|--------------------||
Gtrs I, II|-----------------|-----------|-----------|--------------|----------------||-----------------|-----------|-----------|--------------|----------------||-2-2-2-5-5-5-2-2-|-2----5----|-5----7----|-4------(4)-6-|----5---4---5-2-||-0-0-0-0-0-0-3-3-|-0----2----|-3----5----|-7------(7)-4-|--2---2---2---2-||-----------------|-----------|-----------|--------------|--------------0-||-----------------|-----------|-----------|--------------|----------------|
Out-Chorus||-------------------|-----------------|------------------|-----------------|||o------------------|-----------------|------------------|-----------------|||--(2)--------------|-----5---4---5-2-|-(2)----------2-2-|-2--5---4---5-2--|||--(2)--2-2-2-2-2-2-|-2-2---2---2---2-|-(2)--2-2-2-2-0-2-|-2----2---2---3--|||o-(0)--0-0-0-0-0-0-|-0-0-----------0-|-(0)--0-0-0-0-----|-----------------|||-------------------|-----------------|------------------|-----------------|
~ 4x|------------------|-----------------|------------|-----------------|||------------------|-----------------|------------|----------------o|||-(2)--2-2-2-2-2-2-|-2-2-5-0-4-0-5-7-|-7------5-4-|----5---4---5----|||-(3)--3-3-3-3-3-3-|-3-3---3---3-----|------------|--2---2---2---2--|||------------------|-----------------|------------|--------------0-o|||------------------|-----------------|------------|-----------------||
Outro Gtr I|------------------|-----------------|-----------------|------*||---10-----6-----5-|-----3-----1-----|-0-----0---------|------*||------9-----5-----|-5-----4-----2---|---2-----2-------|------*||--------7-----5---|---5-----2-----2-|-----2-----2-----|-2----*||------------------|-----------------|-------------3-2-|-0----*||------------------|-----------------|-----------------|------*|
|
| Gtr II|------------------|-----------------|-----------------|------*||------------------|-----------------|-----------------|------*||-2----------------|-----------------|-----------------|------*||-2----------------|-----------5-----|-4-----------5-4-|-2----*||-0------3-----2---|-----------3-----|-2-----------3-2-|-0----*||--------1-----0---|-----------------|-----------------|------*|
judas priest enjoy the tab and any correction of this tab please let me know
Tap to rate this tab
 
# A B C D E F G H I J K L M N O P Q R S T U V W X Y Z