Justin Timberlake - I Think She Knows tab

Lovestoned / I Think She Knows (Interlude)
Justin Timberlake
Covered by John Mayer
Tabbed by Jeremy Tan 2008
Video: http://www.youtube.com/watch?v=4ruic_HgQ6U

Rhythm Guitar Part 1 (Palm-Muted)

|------------------------------------------------------------------||------------------------------------------------------------------||----------------------------------0-0-0-0-0-0-0-0-----------------||--2-2-2-2-2-2-2-2-0-0-0---------------------------4-4-4-2-2-2-2-2-||------------------------3-3-3-3-3---------------------------------||------------------------------------------------------------------|
Rhythm Guitar Part 2 (Palm-Muted)
|------------------------------------------------------------------||--0-0-0-0-0-0-0-0-----------------3-3-3-3-3-3-3-3-5-5-5-0-0-0-0-0-||------------------2-2-2-0-0-0-0-0---------------------------------||------------------------------------------------------------------||------------------------------------------------------------------||------------------------------------------------------------------|
Lead Guitar Part 1
|------------------------------------------------------------------||--------3----0-0--------------------------------3-----------------||--0-2-0----------2p0-2--0-------------2h4-2-4--------4p2-0-0h2-0--||---------------------------0h2-0----------------------------------||------------------------------------------------------------------||------------------------------------------------------------------|
Lead Guitar Part 2
|------------------------------------------------------------------||------------------------------------------------------------------||--2h4-4-4-4p0-4p0-0h2-0-2h4--------2h4-4-4-4-4-4-0-0h2-0-2h4-2-0--||------------------------------------------------------------------||------------------------------------------------------------------||------------------------------------------------------------------|
|------------------------------------------------------------------||-----------------------------------3------------------------------||--2h4-4-4-4p0-4p0-0h2-0-2h4----2p0---4--4p2-0-0h2-0---------------||------------------------------------------------------------------||------------------------------------------------------------------||------------------------------------------------------------------|
Lead Guitar Part 3
|---------------------------------------------------||---------------------------------------------------||--14h16-16-16-16-12-16-12-12h14-12-14h16-----------||---------------------------------------------------||---------------------------------------------------||---------------------------------------------------|
|---------------------------------------------------||---------------------------------------------------||--14h16-16-16-16-16-16-12-12h14-12-14h16-14-12-----||---------------------------------------------------||---------------------------------------------------||---------------------------------------------------|
|---------------------------------------------------||---------------------------------------------------||--14h16-16-16-16-12-16-12-12h14-12-14h16-----------||---------------------------------------------------||---------------------------------------------------||---------------------------------------------------|
|---------------------------------------------------||--------15------------------------3----------------||--14p12-----16-16h14-12-12h14-12-----4-4h2-0-0h2-0-||---------------------------------------------------||---------------------------------------------------||---------------------------------------------------|
Lead Guitar Part 4
|------------------------------------------------||-----------3~---------------------3~------------||--2/4~--------------------2/4~------------------||----------------4~-2--------------------4~-5~---||------------------------------------------------||------------------------------------------------|
|------------------------------------------------||-----------3~---------------------3~------------||--2/4~--------------------2/4~------------------||----------------4~-2--------------------4~-5~---||------------------------------------------------||------------------------------------------------|
Lead Guitar Part 5
|------------------------------------------------||------------------------------------------------||------------------------------------------------||--12~-----17~---12~-9~-----12~-----17~---12~-14-||------------------------------------------------||------------------------------------------------|
|------------------------------------------------||------------------------------------------------||--12~-----16~---12~-11~----12~-----16~---12~-14~||--12~-----17~---12~-9~-----12~-----17~---12~-14~||------------------------------------------------||------------------------------------------------|
Lead Guitar Part 6
|---------------------------------------------------||---------------------------------------------------||--14h16-16-16-16-12-16-12-12h14-12-14h16-----------||---------------------------------------------------||---------------------------------------------------||---------------------------------------------------|
|---------------------------------------------------||---------------------------------------------------||--14h16-16-16-16-16-16-12-12h14-12-14h16-14-12-----||---------------------------------------------------||---------------------------------------------------||---------------------------------------------------|
Lead Guitar Part 7
|-------------------------------------------------------------||--------15-------15-----------------------15-----------------||--14h16----14/16----16p14p12-14-12--14/16----16p14p12-14-12--||-------------------------------------------------------------||-------------------------------------------------------------||-------------------------------------------------------------|
|----------------------------------------------------||--------15-----------------------15-----------------||--14/16----16p14p12-14-12--14/16----16p14p12-14-12--||----------------------------------------------------||----------------------------------------------------||----------------------------------------------------|
|----------------------------------------------------||--------15-----------------------15-----------------||--14/16----16p14p12-14-12--14/16----16p14p12-14-12--||----------------------------------------------------||----------------------------------------------------||----------------------------------------------------|
|----------------------------------------------------||--------15-----------------------15-----------------||--14/16----16p14p12-14-12--14/16----16p14p12-14-12--||----------------------------------------------------||----------------------------------------------------||----------------------------------------------------|
|----------------------------------------------------||--------15-----------------------15-----------------||--14/16----16p14p12-14-12--14/16----16p14p12-14-12--||----------------------------------------------------||----------------------------------------------------||----------------------------------------------------|
|----------------------------------------------------||--------15-----------------------15-----------------||--14/16----16p14p12-14-12--14/16----16p14p12-14-12--||----------------------------------------------------||----------------------------------------------------||----------------------------------------------------|
|----------------------------------------------------||--------15-----------------------15-----------------||--14/16----16p14p12-14-12--14/16----16p14p12-14-12--||----------------------------------------------------||----------------------------------------------------||----------------------------------------------------|
|-------------------------------------------------15~-||--------15-------------------------------------------||--14/16----16p14p12-14-12----------------------------||-----------------------------------------------------||---------------------------14p12---------------------||---------------------------------15-12-15-12-15------|
Watch the video for the structure of the song and to see when the different parts are played.
Tap to rate this tab
 
# A B C D E F G H I J K L M N O P Q R S T U V W X Y Z