Kaoma - Lambada tab

----------------------------------------------------------|-------0-------------0------------0------------0----------|-------0-------------0------------0------------0----------|-------2-------------2------------2------------2----------|--------------2-------------2------------2------------2---|----0------3-----0-------3-----0------3-----0------3------|
-------------------------------------------------------------|-------0-------------0-------------0--------------0-----0----|-------0-------------0-------------0--------------0-----0----|-------2-------------2-------------2--------------2-----2----|--------------2-------------2-------------2-------------2----|----0------3-----0-------3-----0-------3-----0-------3-------|
-----7-----------5---3----2----0-------0---3---2----------0----------|-----0---------------0--------0--------1---------------3-----0-------|----------0----------0-----------------0---------------2-----------2-|-------------------------------------------------------4-------------|-----------------2-----------------2---3---------------5-----------0-|-----0-------3-------0--------3----------------0----3------------2---|
---------------------------------------7----------5----3---2----0-----|----0----------------------------0-----0---------------0-------0------|--------------------0------------0---------0-----------0--------------|---------0--------------0---------------------------------------------|------------2----5----------2----5----------------2-----------------2-|----3---------------3------------------0-------3-------0-------3------|
---0----3----2----0-------0-------------------------------------------|---1------------------3------0---------0--------------------------0---|---0------------------2-----------2--------------------0----------0---|----------------------4---------------------0--------------0----------|---3------------------5-----------0------------2---5----------2---5---|-------------0----3-------------2------3---------------3--------------|
----5---5---5-----------------------7-------5-------------------------|----5-------5-------------------5---5-------5-------------------5---8-|----5-------5---5---5-------5---5-------5---------5-5-----------5---5-|----------------7-------7-----------------------------------7---7---7-|----0-----------7---0-----------7---0-----------7-------0-----------7-|------------8---------------8---------------8-------------------8-----|
---2------0------------0---------0-----------------------------|---3------3---3----3---------3---------------------------------|---2------2---2----2----------------------------0--------------|-------4------0----4-----------------2--------------2----------|---5----------0----5---------0-------------2---------------2---|----------2---------------2------0------3-------0-------3------|
----5---5---5-----------------------7-------5-------------------------|----5-------5-------------------5---5-------5-------------------5---8-|----5-------5---5---5-------5---5-------5---------5-5-----------5---5-|----------------7-------7-----------------------------------7---7---7-|----0-----------7---0-----------7---0-----------7-------0-----------7-|------------8---------------8---------------8-------------------8-----|
---2------0---------------2----5---3-2--0------------------------|---3------3---3----3------3----------------------------------0---|---2------2---2----2----------------------------------0----------|-------4------0--------4------------------------------2----------|---5----------0----5-----------0---------------2-------------2---|----------2---------------2--------0--------3------0------3------|
-----7-----------5---3----2----0-------0---3---2----------0----------|-----0---------------0--------0--------1---------------3-----0-------|----------0----------0-----------------0---------------2-----------2-|-------------------------------------------------------4-------------|-----------------2-----------------2---3---------------5-----------0-|-----0-------3-------0--------3----------------0----3------------2---|
---------------------------------------7----------5----3---2----0-----|----0----------------------------0-----0---------------0-------0------|--------------------0------------0---------0-----------0--------------|---------0--------------0---------------------------------------------|------------2----5----------2----5----------------2-----------------2-|----3---------------3------------------0-------3-------0-------3------|
---0----3----2----0-------0-------------------------------------------|---1------------------3------0---------0--------------------------0---|---0------------------2-----------2--------------------0----------0---|----------------------4---------------------0--------------0----------|---3------------------5-----------0------------2---5----------2---5---|-------------0----3-------------2------3---------------3--------------|
----5---5---5-----------------------7-------5-------------------------|----5-------5-------------------5---5-------5-------------------5---8-|----5-------5---5---5-------5---5-------5---------5-5-----------5---5-|----------------7-------7-----------------------------------7---7---7-|----0-----------7---0-----------7---0-----------7-------0-----------7-|------------8---------------8---------------8-------------------8-----|
---2------0------------0---------0-----------------------------|---3------3---3----3---------3---------------------------------|---2------2---2----2----------------------------0--------------|-------4------0----4-----------------2--------------2----------|---5----------0----5---------0-------------2---------------2---|----------2---------------2------0------3-------0-------3------|
----5---5---5-----------------------7-------5-------------------------|----5-------5-------------------5---5-------5-------------------5---8-|----5-------5---5---5-------5---5-------5---------5-5-----------5---5-|----------------7-------7-----------------------------------7---7---7-|----0-----------7---0-----------7---0-----------7-------0-----------7-|------------8---------------8---------------8-------------------8-----|
---2------0---------------2----5---3-2--0------------------------|---3------3---3----3------3----------------------------------0---|---2------2---2----2----------------------------------0----------|-------4------0--------4------------------------------2----------|---5----------0----5-----------0---------------2-------------2---|----------2---------------2--------0--------3------0------3------|
--------3--3--3--------3--3---3---------7--7--7---------7--7--7-----|----0---------------0---------------3------8---------3-----8--------|----0---------------0---------------4------7-----7---4-----7-----7--|----0---------------0---------------5----------------5--------------|-----------------2---------------2----------------------------------|----0------3--------0-----3---------3------7-----10--3-----7-----10-|
--------3--3--3--------3--3---3---------7--7--7---------7--7--7-----|----0---------------0---------------3------8---------3-----8--------|----0---------------0---------------4------7-----7---4-----7-----7--|----0---------------0---------------5----------------5--------------|-----------------2---------------2----------------------------------|----0------3--------0-----3---------3------7-----10--3-----7-----10-|
----5---5---5-----------------------7-------5-------------------------|----5-------5-------------------5---5-------5-------------------5---8-|----5-------5---5---5-------5---5-------5---------5-5-----------5---5-|----------------7-------7-----------------------------------7---7---7-|----0-----------7---0-----------7---0-----------7-------0-----------7-|------------8---------------8---------------8-------------------8-----|
---2------0------------0---------0-----------------------------|---3------3---3----3---------3---------------------------------|---2------2---2----2----------------------------0--------------|-------4------0----4-----------------2--------------2----------|---5----------0----5---------0-------------2---------------2---|----------2---------------2------0------3-------0-------3------|
----5---5---5-----------------------7-------5-------------------------|----5-------5-------------------5---5-------5-------------------5---8-|----5-------5---5---5-------5---5-------5---------5-5-----------5---5-|----------------7-------7-----------------------------------7---7---7-|----0-----------7---0-----------7---0-----------7-------0-----------7-|------------8---------------8---------------8-------------------8-----|
---2------0---------------2----5---3-2--0------------------------|---3------3---3----3------3----------------------------------0---|---2------2---2----2----------------------------------0----------|-------4------0--------4------------------------------2----------|---5----------0----5-----------0---------------2-------------2---|----------2---------------2--------0--------3------0------3------|
-----7-----------5---3----2----0-------0---3---2----------0----------|-----0---------------0--------0--------1---------------3-----0-------|----------0----------0-----------------0---------------2-----------2-|-------------------------------------------------------4-------------|-----------------2-----------------2---3---------------5-----------0-|-----0-------3-------0--------3----------------0----3------------2---|
---------------------------------------7----------5----3---2----0-----|----0----------------------------0-----0---------------0-------0------|--------------------0------------0---------0-----------0--------------|---------0--------------0---------------------------------------------|------------2----5----------2----5----------------2-----------------2-|----3---------------3------------------0-------3-------0-------3------|
---0----3----2----0-------0-------------------------------------------|---1------------------3------0---------0--------------------------0---|---0------------------2-----------2--------------------0----------0---|----------------------4---------------------0--------------0----------|---3------------------5-----------0------------2---5----------2---5---|-------------0----3-------------2------3---------------3--------------|
----5---5---5-----------------------7-------5-------------------------|----5-------5-------------------5---5-------5-------------------5---8-|----5-------5---5---5-------5---5-------5---------5-5-----------5---5-|----------------7-------7-----------------------------------7---7---7-|----0-----------7---0-----------7---0-----------7-------0-----------7-|------------8---------------8---------------8-------------------8-----|
---2------0--------------0----------0--------------------------|---3------3---3----3-----------3-------------------------------|---2------2---2----2-------------------------------0-----------|-------4------0----4---------------------2-------------2-------|---5----------0----5-----------0---------------2-------------2-|----------2-----------------2-------0-------3------0------3----|
----5---5---5-----------------------7-------5-------------------------|----5-------5-------------------5---5-------5-------------------5---8-|----5-------5---5---5-------5---5-------5---------5-5-----------5---5-|----------------7-------7-----------------------------------7---7---7-|----0-----------7---0-----------7---0-----------7-------0-----------7-|------------8---------------8---------------8-------------------8-----|
---2------0---------------2----5---3-2--0------------------------|---3------3---3----3------3----------------------------------0---|---2------2---2----2----------------------------------0----------|-------4------0--------4------------------------------2----------|---5----------0----5-----------0---------------2-------------2---|----------2---------------2--------0--------3------0------3------|
--------3--3--3--------3--3---3---------7--7--7---------7--7--7-----|----0---------------0---------------3------8---------3-----8--------|----0---------------0---------------4------7-----7---4-----7-----7--|----0---------------0---------------5----------------5--------------|-----------------2---------------2----------------------------------|----0------3--------0-----3---------3------7-----10--3-----7-----10-|
--------3--3--3--------3--3---3---------7--7--7---------7--7--7-----|----0---------------0---------------3------8---------3-----8--------|----0---------------0---------------4------7-----7---4-----7-----7--|----0---------------0---------------5----------------5--------------|-----------------2---------------2----------------------------------|----0------3--------0-----3---------3------7-----10--3-----7-----10-|
-----0-------------0-x-|-----0------------0--x-|-----0-----------0---x-|---------------2-----x-|--------------2------x-|-----0-------0-------x-|
Tap to rate this tab
 
# A B C D E F G H I J K L M N O P Q R S T U V W X Y Z